>
 >
Jack

Jack Guitar Tabs

Iced Earth - Jack chords, tabs, tablatures, lyrics

Guitar lessons | Add/correct | Request | Top 50 tabs Artists:  A B C D E F G H I J K L M N O P Q R S T U V W X Y Z 0-9

Jack Guitar Tabs – Iced Earth

CD, Sheet music, Poster

Do you like Jack? Share with your friends now
TabsTabs v2
Iced Earth:  Jack



                          The Frozen Palace



Tuning: Eb

Riff 1
Guitar 1
eb|-----------------------------------|
Bb|-----------------------------------|
Gb|-----------------------------------|
Db|-----------------------------------|
Ab|-----------------------------------|
Eb|-00000000000000000000000000...--\\-|
    **************************
Guitar 2
eb|---------------------------------------|
Bb|---------------------------------------|
Gb|---------------------------------------|
Db|-9999...-10101010....--7777...-9999...-|
Ab|---------------------------------------|
Eb|---------------------------------------|
    ****     * * * *      ****    ****
eb|-----------------------------------|
Bb|-----------------------------------|
Gb|-----------------------------------|
Db|-5555...-77777777------------------|
Ab|------------------55555555-7777...-|
Eb|-----------------------------------|
    ****    ******** ******** ****

Riff 2
Guitar 1
eb|---------------------------------------|
Bb|---------------------------------------|
Gb|---------------------------------------|
Db|-----10---9---7---12---10---7-9-10-----|
Ab|------8---7---5---10----8---5-7--8-----|
Eb|-0-0----0---0---0----0----0--------000-|
    * *    *   *   *    *    * * *    ***
eb|---------------------------------|
Bb|---------------------------------|
Gb|---------------------------------|
Db|---10---9---7---5---4------------|
Ab|----8---7---5---3---2----------2-|
Eb|-0----0---0---0---0---0--5-3-2-0-|
    *    *   *   *   *   *  * * *

Guitar 2
eb|---------------------------------------|
Bb|---------------------------------------|
Gb|---------------------------------------|
Db|-9999...-10101010....--7777...-9999...-|
Ab|---------------------------------------|
Eb|---------------------------------------|
    ****     * * * *      ****    ****
eb|----------------------------------------|
Bb|----------------------------------------|
Gb|----------------------------------------|
Db|-5555...-77777777-----------------------|
Ab|------------------55555555-7777...7777\-|
Eb|----------------------------------------|
    ****    ******** ******** ****


Riff 3
eb|---------------------------------|
Bb|---------------------------------|
Gb|---------------------------------|
Db|-----5-4---4-5-------5-4---4-5---|
Ab|-----3-2-0-2-3-2-----3-2-0-2-3-2-|
Eb|-0-0-----------0-0-0-----------0-|
    * * * * * * *   * * * * * * *
eb|--------------------------------|
Bb|--------------------------------|
Gb|--------------------------------|
Db|-----5-4---4--------------------|
Ab|-----3-2-0-2-0-5--5-5-5-5\3-3-2-|
Eb|-0-0-----------3--3-3-3-3\1-1-0-|
    * * * * * * *    * * *


Riff 2a
eb|---------------------------------------|
Bb|---------------------------------------|
Gb|---------------------------------------|
Db|-----10---9---7---12---10---7-9-10-----|
Ab|------8---7---5---10----8---5-7--8-----|
Eb|-0-0----0---0---0----0----0--------000-|
    * *    *   *   *    *    * * *    ***
   "I..."
eb|---------------------------------|
Bb|---------------------------------|
Gb|---------------------------------|
Db|---10---9---7---5---4------------|
Ab|----8---7---5---3---2----------2-|
Eb|-0----0---0---0---0---0--5-3-2-0-|
    *    *   *   *   *   *  * * *
   "...bastard son..."


Riff 3a
Guitar 1
eb|---------------------------------|
Bb|---------------------------------|
Gb|---------------------------------|
Db|-----5-4---4-5-------5-4---4-5---|
Ab|-----3-2-0-2-3-2-----3-2-0-2-3-2-|
Eb|-0-0-----------0-0-0-----------0-|
    * * * * * * *   * * * * * * *
eb|--------------------------------|
Bb|--------------------------------|
Gb|--------------------------------|
Db|-----5-4---4--------------------|
Ab|-----3-2-0-2-0-5--5-5-5-5\3-3-2-|
Eb|-0-0-----------3--3-3-3-3\1-1-0-|
    * * * * * * *    * * *

Guitar 2
eb|---------------------------------|
Bb|---------------------------------|
Gb|--9---12---11---12----12-\11--11-|
Db|---------------------------------|
Ab|--7---10----9---10----10-\-9---9-|
Eb|---------------------------------|

eb|---------------------------------------|
Bb|---------------------------------------|
Gb|-\9---12---14--11---12---12-\11--11-\9-|
Db|---------------------------------------|
Ab|-\7---10---12---9---10---10-\-9---9-\7-|
Eb|---------------------------------------|


Play Riff 2a   "I scream out to you..."


Riff 4 (Guitar 2 plays notes in () as pinch harmonics)
eb|-----------------------------------|
Bb|-----------------------------------|
Gb|-----------------------------------|
Db|-----------------------------------|
Ab|-------------------------3-3-3-2-2-|
Eb|-0-0-0-0-0-0-0-0-0-0-0-0-1-1-1-0-0-|
    * * * * * * * * * * * *
  "I cut you once..."
eb|---------------------------------|
Bb|---------------------------------|
Gb|---------------------------------|  ------|
Db|-------2-------------------(9-9)-|        |
Ab|-------2-------3------3/5\3-7-7--|        |
Eb|-0-000---0-0-0-1--0-0-1/3\1------|        |
    * ***   * * *    * *                     |
  "I cut you twice..."                       |--- Play 3x
eb|---------------------------------|        |
Bb|---------------------------------|        |
Gb|---------------------------------|  ------|
Db|-------2-------------------------|
Ab|-------2---------------3-3-3-2-2-|
Eb|-0-000---0-0-0-0-0-0-0-1-1-1-0-0-|
    * ***   * * * * * * *
   "You're my midnight..."
eb|-----------------------------|
Bb|-----------------------------|
Gb|-----------------------------|
Db|-------2---------------------|
Ab|-------2-------3------3/5\3--|
Eb|-0-000---0-0-0-1--0-0-1/3\1--|
    * ***   * * *    * *
  "...now you're gone..."


Play Riff 3a


Riff 5 (Acoustic)                          x4
eb|-----------------------------------------|-----|
Bb|-----------------------------------------|-----|
Gb|-----------------------------------------|-----|
Db|-9--10-9----9--10-7----9-----------------|--9--|
Ab|-7----------7----------7--10-9--7--5--7--|--7--|
Eb|-0----------0----------0-----------------|--0--|
  "I've seen the rain..."


Play Riff 2a   "Ahhhhhhh, now...."
Play Riff 4    "I cut you once..."

Ending:
eb|-------------------------------|
Bb|-------------------------------|
Gb|-------------------------------|
Db|-------2--------------------2\-|
Ab|-------2-------3------3/5\3-2\-|
Eb|-0-000---0-0-0-1--0-0-1/3\1----|





Comments


Popular Iced Earth tabs & chords
I Died For You Bass Tabs
The Coming Curse Bass Tabs
Wolf 2 Bass Tabs
Attila Tabs
Dracula Tabs
Hallowed Be Thy Name 2 Tabs
Highway To Hell Tabs
Life And Death Tabs
Something Wicked This Way Comes Tabs
When Stars Collide Born Is He Tabs


Song lyrics



↑ Back to top | Tablatures and chords are parodies/interpretations of the original songs. You may use it for private study, scholarship, research or language learning purposes only
© 2014 AZChords.com Contact us | Privacy policy | DMCA | Add/correct tabs | Request tabs | Top 50 tabs