>
 >
Funeral 1

Funeral 1 Guitar Tabs

Iced Earth - Funeral 1 chords, tabs, tablatures, lyrics

Guitar lessons | Add/correct | Request | Top 50 tabs Artists:  A B C D E F G H I J K L M N O P Q R S T U V W X Y Z 0-9

Funeral 1 Guitar Tabs – Iced Earth

CD, Sheet music, Poster

Do you like Funeral 1? Share with your friends now
Tabs

THE FUNERAL
As recorded by Iced Earth
(From the 1991 Album ICED EARTH)



Music by Jon Schaffer

Gtr I (Eb Ab Db Gb Bb Eb) - 'Distortion Guitar'
Gtr II (Eb Ab Db Gb Bb Eb) - 'Distortion Guitar'
Gtr III (Eb Ab Db Gb Bb Eb) - 'Lead Guitar'
Gtr IV (Eb Ab Db Gb Bb Eb) - 'Clean Guitar'

   Section A
    E=158
    E5
   5/8
    Gtr IV
     S S  S S S S  S S  S  S    S S  S S S S  S S  S  S
||-----0------0--------------|----0------0--------------|
||o-10---10-9---9----0-------|-10---10-9---9----0-------|
||----------------10---10--9-|---------------10---10--9-|
||---------------------------|--------------------------|
||o--------------------------|--------------------------|
||---------------------------|--------------------------|
|
|   Gtr I
|    H                 +E       H                 +E
||---------------------------|--------------------------|
||o--------------------------|--------------------------|
||---------------------------|--------------------------|
||---------------------------|--------------------------|
||o--2-----------------(2)---|--2-----------------(2)---|
||---0-----------------(0)---|--0-----------------(0)---|


   S S  S S S S  S S  S  S    S S  S S S S  S S  S  S
|----0------0--------------|----0------0---------------|
|-10---10-9---9----0-------|-10---10-9---9----0--------|
|---------------10---10--9-|---------------10---10--9--|
|--------------------------|---------------------------|
|--------------------------|---------------------------|
|--------------------------|---------------------------|
|
|  H                 +E       H                 +E
|--------------------------|---------------------------|
|--------------------------|---------------------------|
|--------------------------|---------------------------|
|--------------------------|---------------------------|
|--2-----------------(2)---|--2-----------------(2)----|
|--0-----------------(0)---|--0-----------------(0)----|


  G5
 6/8
   S  S  S  S S  S  S S  S S S S    S  S  S  S S  S  S S  S S S S
|--------------------------------|--------------------------------|
|-----0-------0------------------|-----0-------0------------------|
|-12----12-11---11----0------0---|-12----12-11---11----0------0---|
|------------------12---12-9---9-|------------------12---12-9---9-|
|--------------------------------|--------------------------------|
|--------------------------------|--------------------------------|
|
|  H.                               H.
|--------------------------------|--------------------------------|
|--------------------------------|--------------------------------|
|--------------------------------|--------------------------------|
|--------------------------------|--------------------------------|
|--5-----------------------------|--5-----------------------------|
|--3-----------------------------|--3-----------------------------|


   S  S  S  S S  S  S S  S S S S    S  S  S  S S  S  S S  S S S S
|--------------------------------|----------------------------------||
|-----0-------0------------------|-----0-------0-------------------o||
|-12----12-11---11----0------0---|-12----12-11---11----0------0-----||
|------------------12---12-9---9-|------------------12---12-9---9---||
|--------------------------------|---------------------------------o||
|--------------------------------|----------------------------------||
|
|  H.                               H.
|--------------------------------|----------------------------------||
|--------------------------------|---------------------------------o||
|--------------------------------|----------------------------------||
|--------------------------------|----------------------------------||
|--5-----------------------------|--5------------------------------o||
|--3-----------------------------|--3-------------------------------||


    E5
   5/8
    Gtr IV
     S S  S S S S  S S  S  S
||-----0------0--------------|
||o-10---10-9---9----0-------|
||----------------10---10--9-|
||---------------------------|
||o--------------------------|
||---------------------------|
|
|   Gtr I
|    H                 +E
||---------------------------|
||o--------------------------|
||---------------------------|
||---------------------------|
||o--2-----------------(2)---|
||---0-----------------(0)---|


                           Q.=132
                              12/8
   S S  S S S S  S S  S  S     W.              +W.
|----0------0---------------||-0-------------|-(0)----||
|-10---10-9---9----0-------o||-0-------------|-(0)----||
|---------------10---10--9--||-9-------------|-(9)----||
|---------------------------||---------------|--------||
|--------------------------o||---------------|--------||
|---------------------------||---------------|--------||
|
|  H                 +E        W.              +W.
|---------------------------||---------------|--------||
|--------------------------o||---------------|--------||
|---------------------------||---------------|--------||
|---------------------------||---------------|--------||
|--2-----------------(2)---o||-2-------------|-(2)----||
|--0-----------------(0)----||-0-------------|-(0)----||


   Section B
    A5                                              C5
    Gtr II
     E E E E E E  E E E E E E    E E E E E E  E E E  E  E E
||----------------------------|-----------------------------|
||o---------------------------|-----------------------------|
||----------------------------|-----------------------------|
||--10p7-7-8-7-7-10p7-7-8-7-7-|-10p7-7-8-7-7-10p7-7--8--7-7-|
||o---------------------------|-----------------------------|
||----------------------------|-----------------------------|
|
|   Gtr I
|    W.                          H.           Q.     Q.
||----------------------------|-----------------------------|
||o---------------------------|-----------------------------|
||----------------------------|-----------------------------|
||----------------------------|-----------------------------|
||o--7------------------------|--7------------7-----10------|
||---5------------------------|--5------------5------8------|


  E5                                              G5
   E E E E E E  E E E E E E    E E E E E E  E E E E  E E
|---------------------------|-------------------------------||
|---------------------------|------------------------------o||
|---------------------------|-------------------------------||
|---------------------------|-------------------------------||
|-10p7-7-8-7-7-10p7-7-8-7-7-|-10p7-7-8-7-7-10p7-7-8--7-7---o||
|---------------------------|-------------------------------||
|
|  W.                          H.           Q.    Q.
|---------------------------|-------------------------------||
|---------------------------|------------------------------o||
|---------------------------|-------------------------------||
|--9------------------------|--9------------9---------------||
|--7------------------------|--7------------7-----5--------o||
|---------------------------|---------------------3---------||


    A5                                                    C5
     E E E E E   E  E E E E E   E    E E E E E   E  E E E  E  E E
||--------------------------------|-------------------------------|
||o-------------------------------|-------------------------------|
||--------------------------------|-------------------------------|
||--10p7-7-8-7---7-10p7-7-8-7---7-|-10p7-7-8-7---7-10p7-7--8--7-7-|
||o-------------------------------|-------------------------------|
||--------------------------------|-------------------------------|
|
|          PM----|        PM----|          PM----|
|    Q.    E S S E  Q.    E S S E    Q.    E S S E  Q.     Q.
||--------------------------------|-------------------------------|
||o-------------------------------|-------------------------------|
||--------------------------------|-------------------------------|
||--------------------------------|-------------------------------|
||o--7--------------7-------------|--7--------------7-----10------|
||---5-----5-5-5-5--5-----5-5-5-5-|--5-----5-5-5-5--5------8------|


  E5                                                    G5
   E E E E E   E  E E E E E   E    E E E E E   E  E E E E  E E
|-------------------------------|--------------------------------||
|-------------------------------|-------------------------------o||
|-------------------------------|--------------------------------||
|-------------------------------|--------------------------------||
|-10p7-7-8-7---7-10p7-7-8-7---7-|-10p7-7-8-7---7-10p7-7-8--7-7--o||
|-------------------------------|--------------------------------||
|
|        PM----|        PM----|          PM----|
|  Q.    E S S E  Q.    E S S E    Q.    E S S E  Q.    Q.
|-------------------------------|--------------------------------||
|-------------------------------|-------------------------------o||
|-------------------------------|--------------------------------||
|--9--------------9-------------|--9--------------9--------------||
|--7--------------7-------------|--7--------------7-----5-------o||
|--------0-0-0-0--------0-0-0-0-|--------0-0-0-0--------3--------||


                        Q=192
  E5
 4/4
                          PM----------------------------------------------|
  W          +W           E S S E S S E S S E S S   E S S E S S E S S E S S
|----------|------------|-------------------------|---------------------------||
|----------|------------|-------------------------|---------------------------||
|----------|------------|-------------------------|---------------------------||
|----------|------------|-------------------------|---------------------------||
|-2--------|-(2)--------|-------------------------|---------------------------||
|-0--------|-(0)--------|-0-0-0-0-0-0-0-0-0-0-0-0-|-0-0-0-0-0-0-0-0-0-0-0-0---||


   Section C
    $
                        G5  N.C.
    Gtr II
    W                       +H            +E  E E E
||------------------------|-------------------------|
||o-----------------------|-------------------------|
||------------------------|---------------------4-5-|
||--2---------------------|-(2)-----------(2)-2-----|
||o-----------------------|-------------------------|
||------------------------|-------------------------|
|
|   Gtr I
|   PM----------------|      PM-----------|     PM
|   E S S E S S E S S E E    E  S S E S S  E  E E E
||------------------------|-------------------------|
||o-----------------------|-------------------------|
||------------------------|-------------------------|
||------------------------|-------------------------|
||o---------------------5-|-------------------3---2-|
||--0-0-0-0-0-0-0-0-0-0-3-|--0--0-0-0-1-1--1----1---|


                      G5  N.C.
  W                       +H            +E  E E E
|-----------------------|--------------------------|
|-----------------------|--------------------------|
|-4---------------------|-(4)-----------(4)-4-5-4--|
|-----------------------|--------------------------|
|-----------------------|--------------------------|
|-----------------------|--------------------------|
|
| PM----------------|      PM-----------|     PM
| E S S E S S E S S E E    E  S S E S S  E  E E E
|-----------------------|--------------------------|
|-----------------------|--------------------------|
|-----------------------|--------------------------|
|-----------------------|--------------------------|
|---------------------5-|-------------------3---2--|
|-0-0-0-0-0-0-0-0-0-0-3-|--0--0-0-0-1-1--1----1----|


                        G5  N.C.
  H.                 Q      H.               Q
|-------------------------|-----------------------|
|-------------------------|-----------------------|
|-------------------------|-----------------------|
|-7------------------7\---|-5----------------5\---|
|-------------------------|-----------------------|
|-------------------------|-----------------------|
|
| PM-----------------|      PM-----------|   PM
| E  S S E S S E S S E  E   E  S S E S S E E E  E
|-------------------------|-----------------------|
|-------------------------|-----------------------|
|-------------------------|-----------------------|
|-------------------------|-----------------------|
|-----------------------5-|----------------3----2-|
|-0--0-0-0-0-0-0-0-0-0--3-|-0--0-0-0-1-1-1---1----|


                          G5  N.C.
  H           +E  E   S S E   Q.       E   S S E S S E
|---------------------------|-----------------------------||
|---------------------------|----------------------------o||
|---------------------------|-----------------------------||
|-2-----------(2)-2---3p2p0-|-2--------2---3p2p0-3p2p0----||
|---------------------------|----------------------------o||
|---------------------------|-----------------------------||
|
| PM------------------|       PM-----------|     PM
| E S S E S S  E  S S E   E   E  S S E S S E   E E   E
|---------------------------|-----------------------------||
|---------------------------|----------------------------o||
|---------------------------|-----------------------------||
|---------------------------|-----------------------------||
|-------------------------5-|------------------3-----2---o||
|-0-0-0-0-0-0--0--0-0-0---3-|-0--0-0-0-1-1-1-----1--------||


                        G5   N.C.
    PM----------------|      PM----------|    PM
    E S S E S S E S S E  E   E S S E S S E  E E E
||-------------------------|----------------------|
||o------------------------|----------------------|
||-------------------------|----------------------|
||----------------------12-|---------------10---9-|
||o-7-7-7-7-7-7-7-7-7-7-10-|-7-7-7-7-8-8-8----8---|
||-------------------------|----------------------|
|
|   PM----------------|      PM----------|    PM
|   E S S E S S E S S E  E   E S S E S S E  E E E
||-------------------------|----------------------|
||o------------------------|----------------------|
||-------------------------|----------------------|
||-------------------------|----------------------|
||o----------------------5-|----------------3---2-|
||--0-0-0-0-0-0-0-0-0-0--3-|-0-0-0-0-1-1-1----1---|


                                            D.S.
                      G5   N.C.
  PM----------------|      PM----------|    PM
  E S S E S S E S S E  E   E S S E S S E  E E E
|------------------------|------------------------||
|------------------------|-----------------------o||
|------------------------|------------------------||
|---------------------12-|---------------10---9---||
|-7-7-7-7-7-7-7-7-7-7-10-|-7-7-7-7-8-8-8----8----o||
|------------------------|------------------------||
|
| PM----------------|      PM----------|    PM
| E S S E S S E S S E  E   E S S E S S E  E E E
|------------------------|------------------------||
|------------------------|-----------------------o||
|------------------------|------------------------||
|------------------------|------------------------||
|----------------------5-|----------------3---2--o||
|-0-0-0-0-0-0-0-0-0-0--3-|-0-0-0-0-1-1-1----1-----||


                           Section D
  Q=114
  E5                        N.C.
                            Gtr IV
  W          +W             E  E  E  E  +E   E  E  E
|----------|------------||---------------------------|
|----------|------------||o--------------------------|
|----------|------------||------------------16-------|
|----------|------------||-------16-17-(17)----17-16-|
|-2--------|-(2)--------||o---14---------------------|
|-0--------|-(0)--------||--0------------------------|


  E  E  E  E  +E   E  E  E  4x
|---------------------------||
|--------------------------o||
|-----------------17--------||
|------16-17-(17)----17-16--||
|---14---------------------o||
|-0-------------------------||


  Gtr I
  Q     E  E  +Q.        E    E  E  E  E   E   E  Q
|--------------------------|----------------------------|
|--------------------------|----------------------------|
|-9------------------------|----------------------------|
|-------7--9--(9)--------9-|-10--9--7--5---5---7--9\----|
|--------------------------|----------------------------|
|--------------------------|----------------------------|
|
| Gtr IV
| E  E  E  E  +E   E  E  E    E  E  E  E  +E   E  E   E
|--------------------------|----------------------------|
|--------------------------|----------------------------|
|-----------------16-------|------------------17--------|
|------16-17-(17)----17-16-|-------16-17-(17)----17--16-|
|---14---------------------|----14----------------------|
|-0------------------------|--0-------------------------|


                                        ~~~~~~~
  E  E  E  E  +Q.        S S   E  E  E  E  +H
|----------------------------|--------------------------|
|----------------------------|--------------------------|
|----------------------------|--------------------------|
|-2--3-----2--(2)--------2-2-|-3--2-----2--(2)----------|
|-------5--------------------|-------5------------------|
|----------------------------|--------------------------|
|
| E  E  E  E  +E   E  E  E     E  E  E  E  +E   E  E  E
|----------------------------|--------------------------|
|----------------------------|--------------------------|
|-----------------16---------|-----------------17-------|
|------16-17-(17)----17-16---|------16-17-(17)----17-16-|
|---14-----------------------|---14---------------------|
|-0--------------------------|-0------------------------|


  E  E  E  E  +E   Q     E   E  E  Q       E   E  Q
|--------------------------|----------------------------|
|--------------------------|----------------------------|
|-9--------7--(7)----------|----------------------------|
|----9-10---------10-----9-|-7--9-10\------5---7--9\----|
|--------------------------|----------------------------|
|--------------------------|----------------------------|
|
| E  E  E  E  +E   E  E  E   E  E  E   E  +E   E  E   E
|--------------------------|----------------------------|
|--------------------------|----------------------------|
|-----------------16-------|------------------17--------|
|------16-17-(17)----17-16-|------16--17-(17)----17--16-|
|---14---------------------|---14-----------------------|
|-0------------------------|-0--------------------------|


                                        ~~~~~~~
  E  E  E  E  +Q.        S S   E  E  E  E  +H
|----------------------------|--------------------------|
|----------------------------|--------------------------|
|----------------------------|--------------------------|
|-2--3-----2--(2)--------2-2-|-3--2-----2--(2)----------|
|-------5--------------------|-------5------------------|
|----------------------------|--------------------------|
|
| E  E  E  E  +E   E  E  E     E  E  E  E  +E   E  E  E
|----------------------------|--------------------------|
|----------------------------|--------------------------|
|-----------------16---------|-----------------17-------|
|------16-17-(17)----17-16---|------16-17-(17)----17-16-|
|---14-----------------------|---14---------------------|
|-0--------------------------|-0------------------------|


  PM                          PM
  E  E  E  E  +Q       Q      E  E  E  E  +E    Q     E
|---------------------------|---------------------------|
|---------------------------|---------------------------|
|---------------------------|---------------------------|
|-------7--9--(9)\----------|-------7--9--(9)\--2-----4-|
|-7--9----------------------|-7--9----------------------|
|---------------------------|---------------------------|
|
| E  E  E  E  +E    E  E  E   E  E  E  E  +E    E  E  E
|---------------------------|---------------------------|
|---------------------------|---------------------------|
|------------------16-------|------------------17-------|
|------16-17-(17)-----17-16-|------16-17-(17)-----17-16-|
|---14----------------------|---14----------------------|
|-0-------------------------|-0-------------------------|


                                        ~~~~~~~
  E  E  E  E  +E  a  Q     E   E  E  E  E  +H
|----------------------------|--------------------------|
|----------------------------|--------------------------|
|----------------------------|--------------------------|
|-5--4--2--------------------|--------------------------|
|----------5--(5)s2--2-----2-|-3--2--0--2--(2)----------|
|----------------------------|--------------------------|
|
| E  E  E  E  +E     E  E  E   E  E  E  E  +E   E  E  E
|----------------------------|--------------------------|
|----------------------------|--------------------------|
|-------------------16-------|-----------------17-------|
|------16-17-(17)------17-16-|------16-17-(17)----17-16-|
|---14-----------------------|---14---------------------|
|-0--------------------------|-0------------------------|


  PM                          PM
  E  E  E  E  +Q       Q      E  E  E  E  +E    Q     E
|---------------------------|---------------------------|
|---------------------------|---------------------------|
|---------------------------|---------------------------|
|-------7--9--(9)\----------|-------7--9--(9)\--2-----4-|
|-7--9----------------------|-7--9----------------------|
|---------------------------|---------------------------|
|
| E  E  E  E  +E    E  E  E   E  E  E  E  +E    E  E  E
|---------------------------|---------------------------|
|---------------------------|---------------------------|
|------------------16-------|------------------17-------|
|------16-17-(17)-----17-16-|------16-17-(17)-----17-16-|
|---14----------------------|---14----------------------|
|-0-------------------------|-0-------------------------|


                                    ~~~~~~~~~~
  E  E  E  E  +E    Q     E   E  E  Q     +H
|---------------------------|--------------------------||
|---------------------------|--------------------------||
|---------------------------|--------------------------||
|-5--4--2-------------------|--------------------------||
|----------5--(5)\--0-----0-|-2--3--2-----(2)----------||
|---------------------------|--------------------------||
|
| E  E  E  E  +E    E  E  E   E  E  E  E  +E   E  E  E
|---------------------------|--------------------------||
|---------------------------|--------------------------||
|------------------16-------|-----------------17-------||
|------16-17-(17)-----17-16-|------16-17-(17)----17-16-||
|---14----------------------|---14---------------------||
|-0-------------------------|-0------------------------||


 Section E
  Q=134
  E5            F5            E5            G5      N.C.(F5)
  Gtrs I, II
          PM|           PM|           PM|     PM----------|
  H.      E E   H.      E E   H.      E E   E E E E E E E E
|-------------|-------------|-------------|-----------------|
|-------------|-------------|-------------|-----------------|
|-------------|-------------|-------------|-----------------|
|-------------|-------------|-------------|-----------------|
|-2-----------|-3-----------|-2-----------|-5---------------|
|-0-------0-0-|-1-------1-1-|-0-------0-0-|-3-3-3-3-1-1-1-1-|


  E5            F5             E5            G5      F5
          PM|        PM  PM            PM|     PM--|   PM--|
  H.      E E   H    E E E E   H.      E E   E E E E E E E E
|-------------|--------------|-------------|-----------------|
|-------------|--------------|-------------|-----------------|
|-------------|--------------|-------------|-----------------|
|-------------|--------------|-------------|-----------------|
|-2-----------|-3------3---3-|-2-----------|-5-------3-------|
|-0-------0-0-|-1----1-1-1-1-|-0-------0-0-|-3-3-3-3-1-1-1-1-|


  N.C.
                                                   PM----------|   PM--|
  H.      E  E    Q   E E E E  E E   Q  E E +Q   E S S   E S S E E S S E Q
|--------------|-------------------|-------------------|---------------------|
|--------------|-------------------|-------------------|---------------------|
|--------------|-------------------|-------------------|---------------------|
|--------------|-------------------|-------------------|---------------------|
|-7-------9-10-|-12--10-9-7-9-10s6-|-7--7--------------|---------5-5-5-5-6---|
|--------------|-------------------|------6-(6)--6-6-6-|-7-7-7-7-------------|


                                                   PM----------|   PM--|
  H.      E  E    Q   E E E E  E E   Q  E E +Q   E S S   E S S E E S S E Q
|--------------|-------------------|-------------------|----------------------||
|--------------|-------------------|-------------------|----------------------||
|--------------|-------------------|-------------------|----------------------||
|--------------|-------------------|-------------------|----------------------||
|-7-------9-10-|-12--10-9-7-9-10s6-|-7--7--------------|---------5-5-5-5-6\---||
|--------------|-------------------|------6-(6)--6-6-6-|-7-7-7-7--------------||


   Section F
    Gtr II
    E Q  S S E E E E   Q.   S S E E E E
||-------------------|------------------|
||o------------------|------------------|
||--4-5--5-5-5-7-5---|-4----4-4-4-5-4---|
||-----------------7-|----------------7-|
||o------------------|------------------|
||-------------------|------------------|
|
|   Gtr I
|   E Q  S S E E E E   Q.   S S E E E E
||-------------------|------------------|
||o------------------|------------------|
||-------------------|------------------|
||--5-7--7-7-7-8-7---|-5----5-5-5-7-5---|
||o----------------8-|----------------8-|
||-------------------|------------------|


  Q.   S S E E E E   Q.   S S E E E E   3x
|------------------|--------------------||
|------------------|-------------------o||
|-4----4-4-4-5-4---|--------------------||
|----------------5-|-7----5-5-5-7-------||
|------------------|--------------7-8--o||
|------------------|--------------------||
|
| Q.   S S E E E E   Q.   S S E E E E   3x
|------------------|--------------------||
|------------------|-------------------o||
|------------------|--------------------||
|-5----5-5-5-7-5---|--------------------||
|----------------8-|-7----7-7-8-7---5--o||
|------------------|--------------8-----||


  Gtr III
  W                  W
|------------------|------------------|
|------------------|------------------|
|------------------|------------------|
|------------------|------------------|
|------------------|------------------|
|------------------|------------------|
|
| Gtr II
| E Q  S S E E E E   Q.   S S E E E E
|------------------|------------------|
|------------------|------------------|
|-4-5--5-5-5-7-5---|-4----4-4-4-5-4---|
|----------------7-|----------------7-|
|------------------|------------------|
|------------------|------------------|
|
| Gtr I
| E Q  S S E E E E   Q.   S S E E E E
|------------------|------------------|
|------------------|------------------|
|------------------|------------------|
|-5-7--7-7-7-8-7---|-5----5-5-5-7-5---|
|----------------8-|----------------8-|
|------------------|------------------|


                                     PM|
  W                  H        Q   E  S S
|------------------|----------------------||
|------------------|----------------------||
|------------------|----------------------||
|------------------|-------------------9--||
|------------------|----------------10----||
|------------------|----------------------||
|
| Q.   S S E E E E   Q.   S S E E E  E
|------------------|----------------------||
|------------------|----------------------||
|-4----4-4-4-5-4---|----------------------||
|----------------5-|-7----5-5-5-7---------||
|------------------|--------------7--8----||
|------------------|----------------------||
|
| Q.   S S E E E E   Q.   S S E E E  E
|------------------|----------------------||
|------------------|----------------------||
|------------------|----------------------||
|-5----5-5-5-7-5---|----------------------||
|----------------8-|-7----7-7-8-7----5----||
|------------------|--------------8-------||


 Guitar Solo
  A5                                    G5
  Gtr III
   PM---------------------------------------------------|   --~~
   |--3---|  |-3--|  |-3--|  |--3---|    |--3---|  |--3-------~~
   E   E  E  E E  E  E  E E  E E    E    E   E  E  E  E  E  H
|-------------------------------------|-----------10-------12-------|
|-------------------------------------|-12-----12-------12----------|
|-------------------11----9-12-9---12-|-----12-------12-------------|
|-10-----10-12-9-12----12-------------|-----------------------------|
|-----12------------------------------|-----------------------------|
|-------------------------------------|-----------------------------|
|
| Gtr I
|                            PM--|                                PM
|  H.                        E   E       H.                     E E
|-------------------------------------|-----------------------------|
|-------------------------------------|-----------------------------|
|-------------------------------------|-----------------------------|
|--2----------------------------------|-12---------------------12---|
|--0-------------------------0---0----|-10---------------------10-0-|
|-------------------------------------|-----------------------------|


  C5
   |--3---|  |--3--|  |--3--|  |---3---|
   E   E  E  E  E  E  E  E  E  E  E    E
|-19-----------19----------------19---17-|
|-----17----18----16-17-17----18---------|
|--------16----------------16------------|
|----------------------------------------|
|----------------------------------------|
|----------------------------------------|
|
|                                   PM
|  H.                          E    E
|----------------------------------------|
|----------------------------------------|
|----------------------------------------|
|--5---------------------------5---------|
|--3---------------------------3----0----|
|----------------------------------------|


  D5
   S  S  S  S  S  S  S  S  Q.     S S
|-17h19p17s15-15h17p15s13-14\-----3-3--|
|--------------------------------------|
|--------------------------------------|
|--------------------------------------|
|--------------------------------------|
|--------------------------------------|
|
|                          PM
|  H                       E  E E E
|--------------------------------------|
|--------------------------------------|
|--------------------------------------|
|--7--------------------------7---7----|
|--5-----------------------0--5-0-5----|
|--------------------------------------|


  A5                                            G5
                                                ~~~~~~~~~~~~
          |-3-| |-3-| |-3-|             |-3-|
  T T T T S S S S S S S S S S S S S S S S S S   H.      +E  S S
|-3h5p3p0-------------------------------0h2h3-|-------------3-3-|
|---------3p2p0---------------------0h3-------|-5-------(5)-----|
|---------------4p2p0-----------0h3-----------|-----------------|
|---------------------4p2p0-2h4---------------|-----------------|
|---------------------------------------------|-----------------|
|---------------------------------------------|-----------------|
|
|                                   PM--|                   PM
| H.                                E   E       H.       E  E
|---------------------------------------------|-----------------|
|---------------------------------------------|-----------------|
|---------------------------------------------|-----------------|
|-2-------------------------------------------|-----------------|
|-0---------------------------------0---0-----|-5--------5------|
|---------------------------------------------|-3--------3--0---|


  C5                                          D5
                                              ~~~~~~~~~~~~~~~
          |-3-| |-3-| |-3-|
  T T T T S S S S S S S S S S S S S S S S S   H.        +E   S S
|-3h5p3p0-----------------------------------|---------------------|
|---------3p2p0---------------------0h3-5p3-|-3---------(3)/------|
|---------------4p2p0-----------0h3---------|----------------9-9--|
|---------------------4p2p0-2h4-------------|---------------------|
|-------------------------------------------|---------------------|
|-------------------------------------------|---------------------|
|
|                                       PM          PM
| H.                                E   E     H     E E  E   E
|-------------------------------------------|---------------------|
|-------------------------------------------|---------------------|
|-------------------------------------------|---------------------|
|-5---------------------------------5-------|-7-------7------7----|
|-3---------------------------------3---0---|-5-----0-5--0---5----|
|-------------------------------------------|---------------------|


  A5                   G5
  E  E E E Q.    S S    E  E E E Q.     S S
|--------------------|----------------------|
|--------------------|----------------------|
|-9--7s5---7-----7-7-|--7--5s4---5------5-5-|
|--------7-----------|---------5------------|
|--------------------|----------------------|
|--------------------|----------------------|
|
|              PM|                      PM
| H.           E E      H.            E E
|--------------------|----------------------|
|--------------------|----------------------|
|--------------------|----------------------|
|-2------------------|-12------------12-----|
|-0------------0-0---|-10------------10-0---|
|--------------------|----------------------|


  C5                 D5
  E  E E E Q.    E   H.        +E  S S
|------------------|-------------------|
|------------------|-------------------|
|-5--4s2---4-------|-2---------(2)-9-9-|
|--------5-------5-|-------------------|
|------------------|-------------------|
|------------------|-------------------|
|
|                PM        PM
| H.           E E   H     E E  E  E
|------------------|-------------------|
|------------------|-------------------|
|------------------|-------------------|
|-5------------5---|-7-------7-----7---|
|-3------------3-0-|-5-----0-5--0--5---|
|------------------|-------------------|


  A5                   G5
  E  E E E Q.    S S   E  E E E Q.    S S
|--------------------|--------------------|
|--------------------|--------------------|
|-9--7s5---7-----7-7-|-7--5s4---5-----5-5-|
|--------7-----------|--------5-----------|
|--------------------|--------------------|
|--------------------|--------------------|
|
|              PM|                    PM
| H.           E E     H.           E E
|--------------------|--------------------|
|--------------------|--------------------|
|--------------------|--------------------|
|-2------------------|--------------------|
|-0------------0-0---|-5------------5-----|
|--------------------|-3------------3-0---|


  H=H
  C5                 D5
  E E E E Q.     E   W
|------------------|------||
|------------------|------||
|-5-4s2---4--------|-2----||
|-------5--------5-|------||
|------------------|------||
|------------------|------||
|
|   PM-----------|
| E E E E E  E E E   W
|------------------|------||
|------------------|------||
|------------------|------||
|-5----------------|-7----||
|-3-3-3-3-3--3-3-3-|-5----||
|------------------|------||


   Section H
    Q=198
    A5                  G5
    Gtr II
    PM------------------------------------------------
    E E  E  E   E E   E E    E   E E E   E E    E  E
||------------------------|--------------------------|
||o-----------------------|--------------------------|
||--------------9-9---7-7-|--------------7-7---------|
||--7-7-10-10-------------|--------9-9---------10-10-|
||o-----------------------|-10--10-------------------|
||------------------------|--------------------------|
|
|   Gtr I
|        PM-----------|          PM---------------|
|   Q    E  S S E S S E E   +E   E E S S E S S  E  E
||------------------------|--------------------------|
||o-----------------------|--------------------------|
||------------------------|--------------------------|
||--2---------------------|--------------------------|
||o-0----0--0-0-0-0-0-0-5-|-(5)----------------------|
||----------------------3-|-(3)--3-3-3-3-3-3-3--3--0-|


  C5                    D5
 -----------------------|
   E  E E E    E  E   E E    E   E E E    E E   Q
|-------------------------|------------------------------||
|-------------------------|-10-------8------------------o||
|-------------------------|------------------------------||
|-------7-7---10-10---9-7-|-----10-9-----10-9---7--------||
|-10-10-------------------|-----------------------------o||
|-------------------------|------------------------------||
|
|       PM------------|          PM-----------------|
|  Q    E S S  E  S S E E   +E   E E S S  E S S E S S
|-------------------------|------------------------------||
|-------------------------|-----------------------------o||
|-------------------------|------------------------------||
|--5--------------------7-|-(7)--------------------------||
|--3----3-3-3--3--3-3-0-5-|-(5)--5-5-5-5--5-5-5-5-0-0---o||
|-------------------------|------------------------------||


    A5                    G5
    Gtr III
     PM-------------------------------------------------
     E  E  E  E   E E   E E    E   E E E   E E    E  E
||--------------------------|--------------------------|
||o---------------8-8---7-7-|--------------7-7---------|
||---------9--9-------------|--------7-7----------9--9-|
||--10-10-------------------|--9---9-------------------|
||o-------------------------|--------------------------|
||--------------------------|--------------------------|
|
|   Gtr II
|    PM-------------------------------------------------
|    E  E  E  E   E E   E E    E   E E E   E E    E  E
||--------------------------|--------------------------|
||o-------------------------|--------------------------|
||----------------9-9---7-7-|--------------7-7---------|
||---7--7-10-10-------------|--------9-9---------10-10-|
||o-------------------------|-10--10-------------------|
||--------------------------|--------------------------|
|
|   Gtr I
|          PM-----------|          PM---------------|
|    Q     E  S S E S S E E   +E   E E S S E S S  E  E
||--------------------------|--------------------------|
||o-------------------------|--------------------------|
||--------------------------|--------------------------|
||---2----------------------|--------------------------|
||o--0-----0--0-0-0-0-0-0-5-|-(5)----------------------|
||------------------------3-|-(3)--3-3-3-3-3-3-3--3--0-|


  C5                      D5
 -------------------------|
   E  E  E  E    E  E   E  E    E   E E E    E E    Q
|----------------------------|--8-------7--------------------||
|----------------------------|------------------------------o||
|----------------9--9---7----|------9-7------9-7-------------||
|--9--9-10-10-------------10-|---------------------10--------||
|----------------------------|------------------------------o||
|----------------------------|-------------------------------||
|
|-------------------------|
|  E  E  E  E    E  E   E  E    E   E E E    E E    Q
|----------------------------|-------------------------------||
|----------------------------|-10-------8-------------------o||
|----------------------------|-------------------------------||
|--------7--7---10-10---9--7-|-----10-9-----10-9----7--------||
|-10-10----------------------|------------------------------o||
|----------------------------|-------------------------------||
|
|        PM-------------|           PM------------------|
|  Q     E  S S  E  S S E  E   +E   E E S S  E S S  E S S
|----------------------------|-------------------------------||
|----------------------------|------------------------------o||
|----------------------------|-------------------------------||
|--5-----------------------7-|-(7)---------------------------||
|--3-----3--3-3--3--3-3-0--5-|-(5)--5-5-5-5--5-5-5--5-0-0---o||
|----------------------------|-------------------------------||


  N.C.(A5)
  Gtrs I, II
      PM----------|       PM----------|
  E E E S S E E E E   E E E S S E E E E
|-------------------|-------------------|
|-------------------|-------------------|
|-0h2---------------|-0h2---------------|
|-0h2---------------|-0h2---------------|
|-----0-0-0-0-0-0-0-|-----0-0-0-0-0-0-0-|
|-------------------|-------------------|


      PM----------|       PM----------|
  E E E S S E E E E   E E E S S E E E E
|-------------------|-------------------||
|-------------------|-------------------||
|-0h2---------------|-0h2---------------||
|-0h2---------------|-0h2---------------||
|-----0-0-0-0-0-0-0-|-----0-0-0-0-0-0-0-||
|-------------------|-------------------||


 Section I
  A5             BbA5  G5
  Gtr II
  Q  E S S  E  E E E   Q   E S S E S S  E  E
|--------------------|-----------------------|
|--------------------|-----------------------|
|--------------------|-----------------------|
|-7--7-7-7--7--7-8-7-|-5---5-5-5-5-5-5--5--5-|
|--------------------|-----------------------|
|--------------------|-----------------------|
|
| Gtr I
| H        +E  E E E   H.              +E  E
|--------------------|-----------------------|
|--------------------|-----------------------|
|--------------------|-----------------------|
|--------------------|-----------------------|
|-7--------(7)-7-8-7-|-5---------------(5)-5-|
|-5--------(5)-5-6-5-|-3---------------(3)-3-|


  Bb5            C5 Bb5 A5                  G5
  Q  E S S  E  E  E E   Q   E S S E S S  E  E
|---------------------|-----------------------|
|---------------------|-----------------------|
|---------------------|-----------------------|
|-8--8-8-8--8--8-10-8-|-7---7-7-7-7-7-7--7--5-|
|---------------------|-----------------------|
|---------------------|-----------------------|
|
| H        +E  E  E E   H.              +E  E
|---------------------|-----------------------|
|---------------------|-----------------------|
|---------------------|-----------------------|
|---------------------|-----------------------|
|-8--------(8)-8-10-8-|-7---------------(7)-5-|
|-6--------(6)-6--8-6-|-5---------------(5)-3-|


  A5             BbA5  G5
  Q  E S S  E  E E E   Q   E S S E S S  E  E
|--------------------|-----------------------|
|--------------------|-----------------------|
|--------------------|-----------------------|
|-7--7-7-7--7--7-8-7-|-5---5-5-5-5-5-5--5--5-|
|--------------------|-----------------------|
|--------------------|-----------------------|
|
| H        +E  E E E   H.              +E  E
|--------------------|-----------------------|
|--------------------|-----------------------|
|--------------------|-----------------------|
|--------------------|-----------------------|
|-7--------(7)-7-8-7-|-5---------------(5)-5-|
|-5--------(5)-5-6-5-|-3---------------(3)-3-|


  Bb5            C5 Bb5 A5
  Q  E S S  E  E  E E   Q   E S S E S S  E  E
|---------------------|-----------------------|
|---------------------|-----------------------|
|---------------------|-----------------------|
|-8--8-8-8--8--8-10-8-|-7---7-7-7-7-7-7--7--5-|
|---------------------|-----------------------|
|---------------------|-----------------------|
|
| H        +E  E  E E   H.              +E  E
|---------------------|-----------------------|
|---------------------|-----------------------|
|---------------------|-----------------------|
|---------------------|-----------------------|
|-8--------(8)-8-10-8-|-7---------------(7)-7-|
|-6--------(6)-6--8-6-|-5---------------(5)-5-|


  N.C.
  Q  E S S E E  E E   Q  E S S E S S E E
|-------------------|--------------------|
|-------------------|--------------------|
|-------------------|--------------------|
|-------------------|--------------------|
|-8--8-8-8-8-8-10-8-|-7--7-7-7-7-7-7-7-7-|
|-------------------|--------------------|
|
| Q  E S S E E  E E   Q  E S S E S S E E
|-------------------|--------------------|
|-------------------|--------------------|
|-------------------|--------------------|
|-------------------|--------------------|
|-5--5-5-5-5-5--7-5-|-3--3-3-3-3-3-3-3-3-|
|-------------------|--------------------|


  Q  E S S E E  E E   Q  E S S E S S E E
|-------------------|--------------------|
|-------------------|--------------------|
|-------------------|--------------------|
|-7--7-7-7-7-7--9-7-|-6--6-6-6-6-6-6-6---|
|-------------------|------------------7-|
|-------------------|--------------------|
|
| Q  E S S E E  E E   Q  E S S E S S E E
|-------------------|--------------------|
|-------------------|--------------------|
|-------------------|--------------------|
|-------------------|--------------------|
|-8--8-8-8-8-8-10-8-|-7--7-7-7-7-7-7-7-0-|
|-------------------|--------------------|


  Q  E S S E E  E E   Q  E S S E S S E E
|-------------------|--------------------|
|-------------------|--------------------|
|-------------------|--------------------|
|-------------------|--------------------|
|-8--8-8-8-8-8-10-8-|-7--7-7-7-7-7-7-7-7-|
|-------------------|--------------------|
|
| Q  E S S E E  E E   Q  E S S E S S E E
|-------------------|--------------------|
|-------------------|--------------------|
|-------------------|--------------------|
|-------------------|--------------------|
|-5--5-5-5-5-5--7-5-|-3--3-3-3-3-3-3-3-3-|
|-------------------|--------------------|


  Q  E S S E E  E E   Q  E S S E S S Q
|-------------------|---------------------|
|-------------------|---------------------|
|-------------------|---------------------|
|-7--7-7-7-7-7--9-7-|-6--6-6-6-6-6-6-6\---|
|-------------------|---------------------|
|-------------------|---------------------|
|
| Q  E S S E E  E E   Q  E S S E S S E  E
|-------------------|---------------------|
|-------------------|---------------------|
|-------------------|---------------------|
|-------------------|---------------------|
|-8--8-8-8-8-8-10-8-|-7--7-7-7-7-7-7-7--0-|
|-------------------|---------------------|


   PM---------------------------------------------------------
   E  S  S  E  S  S  E  S  S  E  E   E S S E S S E S S E S S
|----------------------------------|-------------------------|
|----------------------------------|-------------------------|
|----------------------------------|-------------------------|
|-10-10-10-10-10-10-10-10-10-12-10-|-9-9-9-9-9-9-9-9-9-9-9-9-|
|----------------------------------|-------------------------|
|----------------------------------|-------------------------|
|
|  PM---------------------------------------------------------
|  E  S  S  E  S  S  E  S  S  E  E   E S S E S S E S S E S S
|----------------------------------|-------------------------|
|----------------------------------|-------------------------|
|----------------------------------|-------------------------|
|--7--7--7--7--7--7--7--7--7--8--7-|-5-5-5-5-5-5-5-5-5-5-5-5-|
|----------------------------------|-------------------------|
|----------------------------------|-------------------------|


 ------------------------------------------------------------------|
   E  S  S  E  S  S  E  S  S  E  E    E  S  S  E  S  S  E  S  S  E E
|----------------------------------|-----------------------------------|
|----------------------------------|-----------------------------------|
|----------------------------------|-----------------------------------|
|-12-12-12-12-12-12-12-12-12-14-12-|-10-10-10-10-10-10-10-10-10-10-9---|
|----------------------------------|-----------------------------------|
|----------------------------------|-----------------------------------|
|
|------------------------------------------------------------------|
|  E  S  S  E  S  S  E  S  S  E  E    E  S  S  E  S  S  E  S  S  E E
|----------------------------------|-----------------------------------|
|----------------------------------|-----------------------------------|
|----------------------------------|-----------------------------------|
|--8--8--8--8--8--8--8--8--8-10--8-|--7--7--7--7--7--7--7--7--7--7-5---|
|----------------------------------|-----------------------------------|
|----------------------------------|-----------------------------------|


   PM---------------------------------------------------------
   E  S  S  E  S  S  E  S  S  E  E   E S S E S S E S S E S S
|----------------------------------|-------------------------|
|----------------------------------|-------------------------|
|----------------------------------|-------------------------|
|-10-10-10-10-10-10-10-10-10-12-10-|-9-9-9-9-9-9-9-9-9-9-9-9-|
|----------------------------------|-------------------------|
|----------------------------------|-------------------------|
|
|  PM---------------------------------------------------------
|  E  S  S  E  S  S  E  S  S  E  E   E S S E S S E S S E S S
|----------------------------------|-------------------------|
|----------------------------------|-------------------------|
|----------------------------------|-------------------------|
|--7--7--7--7--7--7--7--7--7--8--7-|-5-5-5-5-5-5-5-5-5-5-5-5-|
|----------------------------------|-------------------------|
|----------------------------------|-------------------------|


 ------------------------------------------------------------------|
   E  S  S  E  S  S  E  S  S  E  E    E  S  S  E  S  S  E  S  S  E E
|----------------------------------|-----------------------------------|
|----------------------------------|-----------------------------------|
|----------------------------------|-----------------------------------|
|-12-12-12-12-12-12-12-12-12-14-12-|-10-10-10-10-10-10-10-10-10-10-0---|
|----------------------------------|-----------------------------------|
|----------------------------------|-----------------------------------|
|
|------------------------------------------------------------------|
|  E  S  S  E  S  S  E  S  S  E  E    E  S  S  E  S  S  E  S  S  E E
|----------------------------------|-----------------------------------|
|----------------------------------|-----------------------------------|
|----------------------------------|-----------------------------------|
|--8--8--8--8--8--8--8--8--8-10--8-|--7--7--7--7--7--7--7--7--7--7-0---|
|----------------------------------|-----------------------------------|
|----------------------------------|-----------------------------------|


  Q  E S S E S S E E   Q  E S S E S S E E
|--------------------|---------------------|
|-6--6-6-6-6-6-6-8-6-|-5--5-5-5-5-5-5-5-5/-|
|--------------------|---------------------|
|--------------------|---------------------|
|--------------------|---------------------|
|--------------------|---------------------|
|
| Q  E S S E E   E E   Q  E S S E S S E E
|--------------------|---------------------|
|--------------------|---------------------|
|--------------------|---------------------|
|--------------------|---------------------|
|-5--5-5-5-5-5---7-5-|-3--3-3-3-3-3-3-3-3--|
|--------------------|---------------------|


   Q   E  S  S  E  S  S  E  E   Q  E S S E S S E S S
|-----------------------------|----------------------|
|-10--10-10-10-10-10-10-12-10-|-9--9-9-9-9-9-9-9-9s5-|
|-----------------------------|----------------------|
|-----------------------------|----------------------|
|-----------------------------|----------------------|
|-----------------------------|----------------------|
|
|  Q   E  S  S  E  E     E  E   Q  E S S E S S E E
|-----------------------------|----------------------|
|-----------------------------|----------------------|
|-----------------------------|----------------------|
|-----------------------------|----------------------|
|--8---8--8--8--8--8----10--8-|-7--7-7-7-7-7-7-7-0---|
|-----------------------------|----------------------|


  Q  E S S E S S E E   Q  E S S E S S E E
|--------------------|---------------------|
|-6--6-6-6-6-6-6-8-6-|-5--5-5-5-5-5-5-5-5/-|
|--------------------|---------------------|
|--------------------|---------------------|
|--------------------|---------------------|
|--------------------|---------------------|
|
| Q  E S S E E   E E   Q  E S S E S S E E
|--------------------|---------------------|
|--------------------|---------------------|
|--------------------|---------------------|
|--------------------|---------------------|
|-5--5-5-5-5-5---7-5-|-3--3-3-3-3-3-3-3-3--|
|--------------------|---------------------|


   Q   E  S  S  E  S  S  E  E   Q  E S S E S S Q
|-----------------------------|----------------------||
|-10--10-10-10-10-10-10-12-10-|-9--9-9-9-9-9-9-9\----||
|-----------------------------|----------------------||
|-----------------------------|----------------------||
|-----------------------------|----------------------||
|-----------------------------|----------------------||
|
|  Q   E  S  S  E  E     E  E   Q  E S S E S S E  E
|-----------------------------|----------------------||
|-----------------------------|----------------------||
|-----------------------------|----------------------||
|-----------------------------|----------------------||
|--8---8--8--8--8--8----10--8-|-7--7-7-7-7-7-7-7--0--||
|-----------------------------|----------------------||


   Section J
    A5          F/A         A5            F/A         A5 F/A   A5
    Gtrs I, II
        PM---|      PM---|      PM-----|      PM---|
     E  S  S  E  E  S  S  E  E  S  S    E  E  S  S  E  E  E  E  E
||-----------------------------------|----------------------------|
||o----------------------------------|----------------------------|
||-----------------------------------|----------------------------|
||--14----------15----------14-------|----15----------14-15-15-14-|
||o-12-12-12-12-12-12-12-12-12-12-12-|-12-12-12-12-12-12-12-12-12-|
||-----------------------------------|----------------------------|


  G#5         E/G#        G#5           E/G#        G#5E/G#  G#5
      PM---|      PM---|      PM-----|      PM---|
   E  S  S  E  E  S  S  E  E  S  S    E  E  S  S  E  E  E  E  E
|----------------------------------|-----------------------------||
|----------------------------------|----------------------------o||
|----------------------------------|-----------------------------||
|-13----------14----------13-------|----14----------13-14-14-13--||
|-11-11-11-11-11-11-11-11-11-11-11-|-11-11-11-11-11-11-11-11-11-o||
|----------------------------------|-----------------------------||


  A5          F/A         A5            F/A         A5 F/A   A5
  Gtr II
      PM---|      PM---|      PM-----|      PM---|
   E  S  S  E  E  S  S  E  E  S  S    E  E  S  S  E  E  E  E  E
|----------------------------------|----------------------------|
|----------------------------------|----------------------------|
|-14----------15----------14-------|----15----------14-15-15-14-|
|----------------------------------|----------------------------|
|----12-12-12----12-12-12----12-12-|-12----12-12-12-------------|
|----------------------------------|----------------------------|
|
| Gtr I
|     PM---|      PM---|      PM-----|      PM---|
|  E  S  S  E  E  S  S  E  E  S  S    E  E  S  S  E  E  E  E  E
|----------------------------------|----------------------------|
|----------------------------------|----------------------------|
|----------------------------------|----------------------------|
|-14----------15----------14-------|----15----------14-15-15-14-|
|-12-12-12-12-12-12-12-12-12-12-12-|-12-12-12-12-12-12-12-12-12-|
|----------------------------------|----------------------------|


  G#5         E/G#        G#5           E/G#        G#5E/G#  G#5
      PM---|      PM---|      PM-----|      PM---|
   E  S  S  E  E  S  S  E  E  S  S    E  E  S  S  E  E  E  E  E
|----------------------------------|-----------------------------|
|----------------------------------|-----------------------------|
|-13----------14----------13-------|----14----------13-14-14-13--|
|----------------------------------|-----------------------------|
|----11-11-11----11-11-11----11-11-|-11----11-11-11--------------|
|----------------------------------|-----------------------------|
|
|     PM---|      PM---|      PM-----|      PM---|
|  E  S  S  E  E  S  S  E  E  S  S    E  E  S  S  E  E  E  E  E
|----------------------------------|-----------------------------|
|----------------------------------|-----------------------------|
|----------------------------------|-----------------------------|
|-13----------14----------13-------|----14----------13-14-14-13--|
|-11-11-11-11-11-11-11-11-11-11-11-|-11-11-11-11-11-11-11-11-11--|
|----------------------------------|-----------------------------|


  A5          F/A         A5            F/A         A5 F/A   A5
      PM---|      PM---|      PM-----|      PM---|
   E  S  S  E  E  S  S  E  E  S  S    E  E  S  S  E  E  E  E  E
|----------------------------------|----------------------------|
|----------------------------------|----------------------------|
|-14----------15----------14-------|----15----------14-15-15-14-|
|----------------------------------|----------------------------|
|----12-12-12----12-12-12----12-12-|-12----12-12-12-------------|
|----------------------------------|----------------------------|
|
|     PM---|      PM---|      PM-----|      PM---|
|  E  S  S  E  E  S  S  E  E  S  S    E  E  S  S  E  E  E  E  E
|----------------------------------|----------------------------|
|----------------------------------|----------------------------|
|----------------------------------|----------------------------|
|-14----------15----------14-------|----15----------14-15-15-14-|
|-12-12-12-12-12-12-12-12-12-12-12-|-12-12-12-12-12-12-12-12-12-|
|----------------------------------|----------------------------|


  G#5         E/G#        G#5           E/G#
      PM---|      PM---|      PM-----|      PM------------|
   E  S  S  E  E  S  S  E  E  S  S    E  E  S  S  S  S  S  S  E  Q
|----------------------------------|----------------------------------||
|----------------------------------|----------------------------------||
|-13----------14----------13-------|----14----------------------------||
|----------------------------------|----------------------------------||
|----11-11-11----11-11-11----11-11-|-11----11-11-11-11-11-11----------||
|----------------------------------|----------------------------------||
|
|     PM---|      PM---|      PM-----|      PM---------------|TP
|  E  S  S  E  E  S  S  E  E  S  S    E  E  S  S  S  S  S  S  Q.
|----------------------------------|----------------------------------||
|----------------------------------|----------------------------------||
|----------------------------------|----------------------------------||
|-13----------14----------13-------|----14----------------------------||
|-11-11-11-11-11-11-11-11-11-11-11-|-11-11-11-11-11-11-11-11-17\------||
|----------------------------------|----------------------------------||


   Section K
    N.C.                G5   N.C.
    Gtrs I, II
    PM----------------|      PM----------|    PM
    E S S E S S E S S E  E   E S S E S S E  E E E
||-------------------------|----------------------|
||o------------------------|----------------------|
||-------------------------|----------------------|
||----------------------12-|---------------10---9-|
||o-7-7-7-7-7-7-7-7-7-7-10-|-7-7-7-7-8-8-8----8---|
||-------------------------|----------------------|


                      G5   N.C.
  PM----------------|      PM----------|    PM
  E S S E S S E S S E  E   E S S E S S E  E E E
|------------------------|------------------------||
|------------------------|-----------------------o||
|------------------------|------------------------||
|---------------------12-|---------------10---9---||
|-7-7-7-7-7-7-7-7-7-7-10-|-7-7-7-7-8-8-8----8----o||
|------------------------|------------------------||


 Outro
  Q=164
  E5    B5 Bb5    F5          E5    B5 C5     G5     F5
  Gtr II
  E S S  E  E S S  E S S  E   E S S  E  E S S  E S S  E
|---------------------------|---------------------------|
|---------------------------|---------------------------|
|-------11-10---------------|-------11-12---------------|
|-9------9--8-----10-----10-|-9------9-10-----12-----10-|
|-7-x-x-------x-x--8-x-x--8-|-7-x-x-------x-x-10-x-x--8-|
|---------------------------|---------------------------|
|
| Gtr I
| E E    Q    E    E E    E   E E    Q    E    E E    E
|---------------------------|---------------------------|
|---------------------------|---------------------------|
|---------------------------|---------------------------|
|---------------------------|---------------------------|
|-2----------------3------3-|-2----------------5------3-|
|-0----------------1------1-|-0----------------3------1-|


  E5    B5 Bb5  F5            E5    B5 C5   G5   F5       E5
  E S S  E  E S S  E S S  E   E S S  E  E S S  E S S  E   Q   Q  H
|---------------------------|---------------------------|-------------*|
|---------------------------|---------------------------|-------------*|
|-------11-10---------------|-------11-12---------------|-------------*|
|-9------9--8-----10-----10-|-9------9-10-----12-----10-|-9\----------*|
|-7-x-x-------x-x--8-x-x--8-|-7-x-x-------x-x-10-x-x--8-|-7\----------*|
|---------------------------|---------------------------|-------------*|
|
| E E    Q    E    E E    E   E E    Q    E    E E    E   Q   Q  H
|---------------------------|---------------------------|-------------*|
|---------------------------|---------------------------|-------------*|
|---------------------------|---------------------------|-------------*|
|---------------------------|---------------------------|-------------*|
|-2----------------3------3-|-2----------------5------3-|-2-----------*|
|-0----------------1------1-|-0----------------3------1-|-0-----------*|

Duration Legend
---------------
W - whole; H - half; Q - quarter; E - 8th; S - 16th; T - 32nd; X - 64th; a - acciaccatura
+ - note tied to previous; . - note dotted; .. - note double dotted
Uncapitalized letters represent notes that are staccato (1/2 duration)
Irregular groupings are notated above the duration line
Duration letters will always appear directly above the note/fret number it represents the
duration for.  Duration letters with no fret number below them represent rests.  Multi-
bar rests are notated in the form Wxn, where n is the number of bars to rest for.  Low
melody durations appear below the staff

Tablature Legend
----------------
 h   - hammer-on
 p   - pull-off
 b   - bend
 pb  - pre-bend
 r   - bend release (if no number after the r, then release immediately)
 /\  - slide into or out of (from/to "nowhere")
 s   - legato slide
 S   - shift slide
 - natural harmonic
[n]  - artificial harmonic
n(n) - tapped harmonic
 ~   - vibrato
 tr  - trill
 T   - tap
 TP  - trem. picking
 PM  - palm muting
\n/  - tremolo bar dip; n = amount to dip
 \n  - tremolo bar down
 n/  - tremolo bar up
/n\  - tremolo bar inverted dip
 =   - hold bend; also acts as connecting device for hammers/pulls
 <> - volume swell (louder/softer)
 x   - on rhythm slash represents muted slash
 o   - on rhythm slash represents single note slash

Misc Legend
-----------
 |  - bar
||  - double bar
||o - repeat start
o|| - repeat end
*|  - double bar (ending)
 :  - bar (freetime)
 $  - Segno
 &  - Coda
Tempo markers -  = BPM(8/16=s8/s16), where s8 = swing 8ths, s16 = swing 16ths





Comments


Popular Iced Earth tabs & chords
1776 2 Bass Tabs
Burning Oasis 2 Bass Tabs
Vengeance Is Mine Bass Tabs
Winter Nights Bass Tabs
Jeckyl And Hyde Tabs
Slave To The Darks (Solo) Tabs
Something Wicked Trilogy Tabs
The Coming Cures Tabs
Travel In Stygian 1 Tabs
Written On The Walls 2 Tabs


Song lyrics



↑ Back to top | Tablatures and chords are parodies/interpretations of the original songs. You may use it for private study, scholarship, research or language learning purposes only
© 2014 AZChords.com Contact us | Privacy policy | DMCA | Add/correct tabs | Request tabs | Top 50 tabs