» » »

Iced Earth, Damien Bass tabs (ver.2)

Artists:  A B C D E F G H I J K L M N O P Q R S T U V W X Y Z # 

Damien Bass tabs (ver.2)

Iced Earth Tabs
Rating:
0/5 (0 votes)
Damien lessons Tabs too difficult? Try these video lessons and learn fast
                Bass tab for : Iced Earth - Damien


Figure out the timing, its not difficult at all.

Bass intro x8

G|------------------------|----------------------------||
D|----13----14/13 13------|----13---------11-----------||
A|------------------------|------13----------11--------||
E|0-0----00---------------|0-0------11-99-------9------||


Guitar with no bass


[Part 1] x4
G|------------------------|----------------------------||
D|------------------------|----------------------------||
A|------------------------|----------------------------||
E|-1-0-1-0--0000-0000-----|-1-1/3-3/1-1---0000-0000----||



[part 2] x2
G|---------------------------------------||
D|---------------------------------------||
A|---------------------------------------||
E|-0--0-0-0-0-0-0-0----------------------||
 
[part 3] x2
G|---------------------------------------|------------------------------------||
D|---------------------------------------|-----------------3-5-3--------------||
A|--------------4-6-7-6-4--7-6-----------|-------------4-6-------7/6----------||
E|-0-0000000-----------------------------|-0-0000000--------------------------||
 


[part 4] x2
G|-----------------|-----------------|-----------------|-----------------||
D|-----------------|-----------------|-----------------|-----------------||
A|6----6---6/7/6---|4----4----4/6/4--|2----2----2/4/2--|1----1---1h2-4--6||
E|-----------------|-----------------|-----------------|-----------------||


[Part 1] x4

[Part 2] x2
[part 3] x2

[Part 5] x4
G|---------------------------------------|-----------------------------------------|
D|---------------------------------------|-----------------------------------------|
A|6------6------6/7/6-4------4-----4/6/4-|-2------2------2/4/2- 1-----1-----1/4/6 7|
E|--0000---0000--------0000---0000-------|---0000---0000---------0000--0000--------|
 


[Part 2] x2
[Part 3] x2

[Break Down] x4

G|----------------------||---------------------------||
D|-----13-----13-----14-||----14-----14---14-14/13-13||
A|----------------------||---------------------------||
E|-00-----00-----00-----||00-----00-----0------------||

[Part 5] x2

[Part 1] x4

[Part 2] x2
[Part 3] x2

[Part 5] x4

[Part 1] Til the fade out....

This was my first ever tab and I hope it helps someone!
            
Submit corrections

comments powered by Disqus
↑ Back to top | Iced Earth Bass for Damien. Lyrics for acoustic guitar and electric guitar. Tablatures and chords are parodies/interpretations of the original songs. You may use it for private study, scholarship, research or language learning purposes only