» » »

Iced Earth, Anthem Tabs (ver.2)

Artists:  A B C D E F G H I J K L M N O P Q R S T U V W X Y Z # 

Anthem Tabs (ver.2)

Iced Earth Tabs
 Rating:
4/5 (4 votes)
Anthem lessons Tabs too difficult? Try these video lessons and learn fast
                Anthem - half-step down
======
transciption: Myke Havoc

 intro 1:(acoustic electric, strummed)
|-----7---7---5--------7---7---3-|-----7---7---5---------0-------|
|-----8---7---5--------8---7---3-|-----8---7---5-------------0-1-|
|-----9---9---7--------9---9---5-|-----9---9---7-------0---------|
|-----9---9---7--------9---9---5-|-----9---9---7-----2-----------|
|--------------------------------|-----------------3-------------|
|-0---------------0--------------|-0-----------------------------|

 intro 2:(acoustic electric, fingered/plucked)
|-----8---7------------8---7-----|-----8---7---------------------|
|------------10---------------10-|------------10-----------------|
|-----9---9---9--------9---9---9-|-----9---9---9-------7-------5-|
|--------------------------------|-------------------7-------5---|
|--------------------------------|-----------------5-----3-------|
|-0---------------0--------------|-0-----------------------------|

 chorus:                       
|---------------------------------|---------------------------|
|---------------------------------|---------------------------|
|---------------------------------|---------------------------|
|-2-2-2--2--2---2---2--2--7--[3x]-|-5-5-5--5-5-5--5-5-5----3--|
|-2-2-2--2--2---2---2--2--7-\-----|-3-3-3--3-3-3--3-3-3----3--|
+-0-0-0--0--0-0-0-0-0--0--5-\-----|----------------------0-1--+
| * * *  *  * * * * *  *            * * *  * * *  * * *  *    |
|lead:(notes in parens are harmony)                           |
+---------------------------------|---------------------------|
|-----(10)------------------------|---------------------------|
|-----------(12)----(11)----------|-(9)--------(9)----(9)h(10)|
|------10-----9--------------[3x]-|---------------------------|
|--------------------12-----------|--10---------10-----10h-12-|
|---------------------------------|---------------------------|

 verse:
|-----------------------------|--------------------------------|
|-----------------------------|--------------------------------|
|-----------------------------|--------------------------------|
|-2----2----2------------[2x]-|-4---4--4----2---2--2-----------|
|-2----2----2----3-2-0--------|-5-5-5--5----3-3-3--3---3-2-0---|
|-0-00-0-00-0-00-------3------|------------------------------3-|
    **   **   ** * * * *          *           *        * * * *

 solo rhythm:
|----------------------------|-------------------------------|
|----------------------------|-------------------------------|
|---------------------5------|---------------------7---5-----|
|---------------------5------|---------------------7---5-----|
|-2------2------4\5---3------|-2------2------4\5---5---3-----|
|-0-000-00---00-2\3---3------|-0-000-00---00-2\3---5---3-----| 
  * *** **   **                * *** **   **

 bridge:
|----------------------------|--------------------------------|
|----------------------------|--------------------------------|
|----------------------------|----------------------2-----4---|
|-5---x5x4---x4x5---x5x2---x2|x5---x5x4---x4x2---x2x2-----4---|
|-7---x7x5---x5x7---x7x3---x3|x7---x7x5---x5x3---x3x0-----2---|
|----------------------------|--------------------------------|

 outro:
|---------------------------------|---------------------------|
|---------------------------------|---------------------------|
|---------------------------------|----------------------7\5--|
|-2-2-2--2--2---2---2--2--2--[3x]-|-7-7-7--7-7-7--7-7-7--7\5--|
|-2-2-2--2--2---2---2--2--2-\-----|-5-5-5--5-5-5--5-5-5--5\3--|
+-0-0-0--0--0-0-0-0-0--0--0-\-----|---------------------------+
| * * *  *  * * * * *  *            * * *  * * *  * * *  *    |
|lead:(notes in parens are harmony)                           |
+---------------------------------|---------------------------|
|-----(12)----(10)----(8)---------|-(7)------(7)------(7)h(8)-|
|------12------11------9----------|--7--------7--------7-h-9--|
|----------------------------[3x]-|---------------------------|
|---------------------------------|---------------------------|
|---------------------------------|---------------------------|
                       

intro 1 [2x]
intro 2 [2x]
electric guitars slide in
chorus  [2x]
verse   [2x]
chorus  [2x]
verse   [2x]
chorus  [2x]
solo    [2x]
bridge
chorus  [2x]
outro   [2x]
chorus till fade
            
Submit corrections

comments powered by Disqus
↑ Back to top | Iced Earth Tabs for Anthem. Lyrics for acoustic guitar and electric guitar. Tablatures and chords are parodies/interpretations of the original songs. You may use it for private study, scholarship, research or language learning purposes only