» » »

1776 Bass tabs (ver.2)

Artists:  A B C D E F G H I J K L M N O P Q R S T U V W X Y Z # 

1776 Bass tabs (ver.2)

Iced Earth
Rating:
0/5 (0 votes)

Tabs too difficult? Try these video lessons and learn fast.
                ICED EARTH
1776 (instrumental)


Tune down ½ step

Intro x2
G|--------------------||
D|--------------------||
A|--------------------||
E|--------0-------0---||
 
Riff 1
G|-------------------------------------|---------|
D|-------------------------------------|---------|
A|--------7-------7-----------------5--|-3-2-----|
E|--0-000---0-000-----3--2--3--2-0-----|-----3-2-|
 |                                   X3|         |
G|-------------------------------------|---------||
D|-------------------------------------|---------||
A|--------7-------7-----------------5--|-3-2-----||
E|--0-000---0-000-----3--2--3--2-0-----|-----3-2-||

G|--------------------------------------------------||
D|--------------------------------------------------||
A|--------------------------------------------------||
E|--0-000-0-0-0-0-000-0-0-0-0-000-0-0-0-0-000-0-0-0-||

Riff 2 x4                        
G|--------------------------------------------------------------------||
D|--------------------------------------------------------------------||
A|-------7-------7-------7--7-770-5-550--3-3-333-3-3-333-3-3-333-3--5-||
E|-0-000---0-000---0-000----------------------------------------------||

Solo x2
G|-----------------|-----------------|-----------------|-----------------|
D|-----------------|-----------------|-----------------|-----------------|
A|-7-7-7-7-7-7-7-7-|-2-2-2-2-2-2-2-2-|-5-5-5-5-5-5-5-5-|-----------------|
E|-----------------|-----------------|-----------------|-5-5-5-5-5-5-5-5-|
 |                                                                       |
G|-----------------|-----------------|-----------------|-----------------||End
D|-----------------|-----------------|-----------------|-----------------||of 
A|-3-3-3-3-3-3-3-3-|-----------------|-----------------|-2-2-2-2-2-2-2-2-||Solo
E|-----------------|-3-3-3-3-3-3-3-3-|-5-5-5-5-5-5-5-5-|-----------------||

Riff 1                               X3|         
G|-------------------------------------|---------||X2
D|-------------------------------------|---------||
A|--------7-------7-----------------5--|-3-2-----||
E|--0-000---0-000-----3--2--3--2-0-----|-----3-2-||

G|--------------------------------------------------||
D|--------------------------------------------------||
A|--------------------------------------------------||
E|--0-000-0-0-0-0-000-0-0-0-0-000-0-0-0-0-000-0-0-0-||

Riff 2 x4                        
G|--------------------------------------------------------------------||
D|--------------------------------------------------------------------||
A|-------7-------7-------7--7-770-5-550--3-3-333-3-3-333-3-3-333-3--5-||
E|-0-000---0-000---0-000----------------------------------------------||


Flute Solo
G|-----------------------------------|-----------------------------------|
D|-----------------------------------|-----------------------------------|
A|-7-r-------------------------------|-2-r-------------------------------|
E|-----------------------------------|-----------------------------------|
 |                                                                       |
G|-----------------------------------|-----------------------------------|
D|-----------------------------------|-----------------------------------| 
A|-5-r-------------------------------|-----------------------------------|
E|-----------------------------------|-5-r-------------------------------|
 |		
G|-----------------------------------|-----------------------------------|
D|-----------------------------------|-----------------------------------|
A|-3-r-------------------------------|-----------------------------------|
E|-----------------------------------|-3-r-------------------------------|
 |                                                                       |
G|-----------------------------------|-----------------------------------||End
D|-----------------------------------|-----------------------------------||of 
A|-----------------------------------|-2-r------------------------------||Flute
E|-5-r-------------------------------|-----------------------------------||Solo

Outro                                X3|                    
G|-------------------------------------|---------|X2   |---------||
D|-------------------------------------|---------|     |---------||
A|--------7-------7-----------------5--|-3-2-----|     |---------||
E|--0-000---0-000-----3--2--3--2-0-----|-----3-2-|     |--0--(0)-||
            
Tabs too difficult? Try these video lessons and learn fast.




comments powered by Disqus
↑ Back to top | Tablatures and chords are parodies/interpretations of the original songs. You may use it for private study, scholarship, research or language learning purposes only