>
 >
Redrum With Lyrics

Redrum With Lyrics Guitar Tabs

Hyde - Redrum With Lyrics chords, tabs, tablatures, lyrics

Guitar lessons | Add/correct | Request | Top 50 tabs Artists:  A B C D E F G H I J K L M N O P Q R S T U V W X Y Z 0-9

Redrum With Lyrics Guitar Tabs – Hyde

CD, Sheet music, Poster

Do you like Redrum With Lyrics? Share with your friends now
Tabs
VAMPS - REDRUM TAB (With Lyrics Version)

TUNE: Drop D
With Distortion


Intro:

e|---------------------------------|
B|---------------------------------|
G|---------------------------------|
D|-0--7-8-0--5-7-0--3-5-0--1-1-1-1-|
A|-0--7-8-0--5-7-0--3-5-0--1-1-1-1-|
D|-0--7-8-0--5-7-0--3-5-0--1-1-1-1-|4x+4x

Verses [HYDE's Guitar] Clean Sound:
(Here you can also play the Intro PALM MUTED [KAZ's Guitar].Play it 4 times but at the 
time unmute the 1st fret)


"Fear"  /  "E..."

e|---------|
B|-----2---|
G|-2-------|
D|---2-----|
A|---------|
D|---------|

"in pain"  /  "...nemy"

e|---------|
B|-----2---|
G|-2-------|
D|---2-----|
A|---------|
D|---------|

"crime"  /  "target"

e|---------|
B|-----2---|
G|-2-------|
D|---2-----|
A|---------|
D|---------|

"pleasure"  /  "prisoner"

e|---------|
B|-----2---|
G|-2-------|
D|---2-----|
A|---------|
D|---------|


"Evil"  /  "Attack"

e|---------|
B|-----2---|
G|-2-------|
D|---2-----|
A|---------|
D|---------|

"insane"  /  "against"

e|---------|
B|-----2---|
G|-2-------|
D|---2-----|
A|---------|
D|---------|

"torture"  /  "shooting"

e|---------|
B|-----2---|
G|-2-------|
D|---2-----|
A|---------|
D|---------|


"friend!"  /  "you?"

e|-----------|
B|-----------|
G|-----------|
D|---1-1-1-1-|
A|---1-1-1-1-|
D|---1-1-1-1-|


e|---------------------------------|
B|---------------------------------|
G|---------------------------------|
D|-0--7-8-0--5-7-0--3-5-0--1-1-1-1-|
A|-0--7-8-0--5-7-0--3-5-0--1-1-1-1-|
D|-0--7-8-0--5-7-0--3-5-0--1-1-1-1-|4x / 3x
He staaaaaaaaaaaaaates,don't  mis...
...taaaaaaaaaaaaaaaake,don't  mis...
...taaaaaaaaaaaaaaaake,don't  mis...
...taaaaaaaaaaaaaaaake.

	/

	  e|---------------------------------|
	  B|---------------------------------|
	  G|-------------------------4/5-5-5-|
	  D|-0--7-8-0--5-7-0--3-5-0----------|
	  A|-0--7-8-0--5-7-0--3-5-0--2/3-3-3-|
	  D|-0--7-8-0--5-7-0--3-5-0----------|
	  ...taaaaaaaaaaaaaaaake.


1st Chorus 2x:
e|-------------|
B|-7--7--7-7-7-|
G|-7--7--7-7-7-|
D|-7--7--7-7-7-|
A|-------------|
D|-------------|
         Say...

e|--------------|
B|--------------|
G|--------------|
D|-8--8--8-8-8/-|
A|-8--8--8-8-8/-|
D|-8--8--8-8-8/-|
   God...  You made...

e|-------------------|
B|-------------------|
G|-------------------|
D|-10--10--10-10-10/-|
A|-10--10--10-10-10/-|
D|-10--10--10-10-10/-|
justice... in this world...

e|------------------|
B|------------------|
G|------------------|
D|-11--11--11-11-11-|
A|-11--11--11-11-11-|
D|-11--11--11-11-11-|
then reversed...


e|-------------|
B|-7--7--7-7-7-|
G|-7--7--7-7-7-|
D|-7--7--7-7-7-|
A|-------------|
D|-------------|
...it     Who...
         (In...)

e|--------------|
B|--------------|
G|--------------|
D|-8--8--8-8-8/-|
A|-8--8--8-8-8/-|
D|-8--8--8-8-8/-|
   Says...  It's...
  (vain... and we...)

e|-------------------|
B|-------------------|
G|-------------------|
D|-10--10--10-10-10/-|
A|-10--10--10-10-10/-|
D|-10--10--10-10-10/-|
sanity... to...
(are gooooooiing...)

e|------------------|
B|------------------|
G|------------------|
D|-11--11--11-11-11-|
A|-11--11--11-11-11-|
D|-11--11--11-11-11-|
pull that trigger...
(insane...)

Play the Intro again (HYDE's Guitar)
[Later, I will update the tab whith this KAZ's Guitar part]


(Pick Scratch)
REDRUM M I'

e|-----------|
B|-----------|
G|-----------|
D|---1-1-1-1-|
A|---1-1-1-1-|
D|---1-1-1-1-|

(Repeat the "He states don't mistake" part)


2nd Chorus 2x:
e|-------------|
B|-7-----7-----|
G|-7-----7-----|
D|-7-----7-----|
A|-------------|
D|-------------|
         Say...

e|--------------|
B|--------------|
G|--------------|
D|-8-------8----|
A|-8-------8----|
D|-8-------8----|
   God...  You made...

e|--------------|
B|--------------|
G|--------------|
D|-10------10---|
A|-10------10---|
D|-10------10---|
justice... in this world...


e|--------------|
B|--------------|
G|--------------|
D|-11------11---|
A|-11------11---|
D|-11------11---|
then reversed...


e|-------------|
B|-7-----7-----|
G|-7-----7-----|
D|-7-----7-----|
A|-------------|
D|-------------|
...it     Who...
         (In...)


e|--------------|
B|--------------|
G|--------------|
D|-8-------8----|
A|-8-------8----|
D|-8-------8----|
   Says...  It's...
  (vain... and we...)

e|--------------|
B|--------------|
G|--------------|
D|-10------10---|
A|-10------10---|
D|-10------10---|
sanity... to...
(are gooooooiing...)

e|--------------|
B|--------------|
G|--------------|
D|-11------11---|
A|-11------11---|
D|-11------11---|
pull that trigger...
(insane...)


Bridge:
e|--------------------------|
B|--------------------------|
G|--------------------------|
D|-3--5-5--3-5-3-5-3-5-5--5-|
A|-3--5-5--3-5-3-5-3-5-5--5-|
D|-3--5-5--3-5-3-5-3-5-5--5-|7x

e|-------------------|
B|-------------------|
G|-------------------|
D|-3-5/9/3/10/5/11/5-|
A|-3-5/9/3/10/5/11/5-|
D|-3-5/9/3/10/5/11/5-|


(Repeat 1st Chorus)


3rd Chorus 2x:
e|-------------|
B|-7-----7-----|
G|-7-----7-----|
D|-7-----7-----|
A|-------------|
D|-------------|
         Say...

e|--------------|
B|--------------|
G|--------------|
D|-8-------8----|
A|-8-------8----|
D|-8-------8----|
   God...

e|--------------|
B|--------------|
G|--------------|
D|-10------10---|
A|-10------10---|
D|-10------10---|
Will I make it...


e|--------------|
B|--------------|
G|--------------|
D|-11------11---|
A|-11------11---|
D|-11------11---|
Trough your gates...


(Repeat 1st Chorus, without Lyrics)


e|-------|
B|-------|
G|-------|
D|-1-1-0-|
A|-1-1-0-|
D|-1-1-0-|





Comments


Popular Hyde tabs & chords
Evergreen Chords
Glamorous Sky Chords
Angel's Tale Tabs
Angels Tale Intro Tabs
Deep Red Tabs
I Can Feel Tabs
Prayer Tabs
The Other Side 1 Tabs
Evergreen Ukulele
Glamorous Sky Ukulele


Song lyrics



↑ Back to top | Tablatures and chords are parodies/interpretations of the original songs. You may use it for private study, scholarship, research or language learning purposes only
© 2014 AZChords.com Contact us | Privacy policy | DMCA | Add/correct tabs | Request tabs | Top 50 tabs