» » »

Hot Water Music, It's Hard To Know Tabs (ver.2)

Artists:  A B C D E F G H I J K L M N O P Q R S T U V W X Y Z # 

It's Hard To Know Tabs (ver.2)

Hot Water Music Tabs
 Rating:
4/5 (4 votes)
It's Hard To Know lessons Tabs too difficult? Try these video lessons and learn fast
                Artist - Hot Water Music
Song - It's Hard to Know
Album - No Division


r = let ring
h = hammer on
p = pull off
/ = slide
b = bend

@0:01+ (beginning)
e----------------------------------------------------------------|
B--------------------------5r-4r-5-4h5p4-------------------------|
G---4------4--------4/5/4----------------------------------------|
D-------------------------------------------(x4)-----------------|
A-2---2-2----2-4-4-----------------------------------------------|
E----------------------------------------------------------------|


@0:24+
e----------------------------------------------------------------|
B----------------------------------------------------------------|
G-44-44----------------------------------------------------------|
D-44-44-22-22-222--44-44-77-77-777-------------------------------|
A-22-22-22-22-222--44-44-77-77-777-------------------------------|
E-------00-00-000--22-22-55-55-555-------------------------------|

 ...............pm................


@0:48
e----------------------------------------------------------------|
B----------------------------------------------------------------|
G-13-13--1111---14--13--11--11/13/11/9--9999898999898------------|
D--x--x---x-x----x---x---x---x/-x/-x/x--xxxxxxxxxxxxx------------|
A-11-11---9-9---12--11---9---9/11/-9/7--7777676777676------------|
E----------------------------------------------------------------|


@0:54
e----------------------------------------------------------------|
B----------------------------------------------------------------|
G-13-13--1111---14--13--11--11/13/11/9--14-13-9r-9h11r-----------|
D--x--x---x-x----x---x---x---x/-x/-x/x---x--x-xr-----------------|
A-11-11---9-9---12--11---9---9/11/-9/7--12-11-7r-----------------|
E----------------------------------------------------------------|


@1:01
e----------------------------------------------------------------|
B----------------------------------------------------------------|
G-13-13--1111---14--13--11--11/13/11/9--9999898999898------------|
D--x--x---x-x----x---x---x---x/-x/-x/x--xxxxxxxxxxxxx------------|
A-11-11---9-9---12--11---9---9/11/-9/7--7777676777676------------|
E----------------------------------------------------------------|


@1:05
e----------------------------------------------------------------|
B----------------------------------------------------------------|
G-13-13--1111---14--13--11--11/13/11/9--14-13-9r-----------------|
D--x--x---x-x----x---x---x---x/-x/-x/x---x--x-xr-----------------|
A-11-11---9-9---12--11---9---9/11/-9/7--12-11-7r-----------------|
E----------------------------------------------------------------|


@1:12+
e----------------------------------------------------------------|
B----------------------------------------------------------------|
G-44-44----------------------------------------------------------|
D-44-44-22-22-222--44-44-77-77-777-------------------------------|
A-22-22-22-22-222--44-44-77-77-777-------------------------------|
E-------00-00-000--22-22-55-55-555-------------------------------|

 ..............pm..................


@1:15
e----------------------------------------------------------------|
B----------------------------------------------------------------|
G-14/13/9r-------------------------------------------------------|
D--x/-x/xr-------------------------------------------------------|
A-12/11/7r-------------------------------------------------------|
E----------------------------------------------------------------|


@ 1:42
e----------------------------------------------------------------|
B-0-9h7p0-7r---9-9h7p0-------------------------------------------|
G----------------------9r----------------------------------------|
D----------------------------------------------------------------|
A----------------------------------------------------------------|
E----------------------------------------------------------------|


@1:48
e----------------------------------------------------------------|
B-------------7r-7r-7r-5555-4h5p4-555p4h5p4----------------------|
G-----6/8/6/4----------------------------------------------------|
D-4h6------------------------------------------------------------|
A----------------------------------------------------------------|
E----------------------------------------------------------------|


@1:54
e----------------------------------------------------------------|
B-------------7r-7r-7/9/7/5h7r-----------------------------------|
G-----6/8/6/4----------------------------------------------------|
D-4h6------------------------------------------------------------|
A----------------------------------------------------------------|
E----------------------------------------------------------------|


@2:00
e----------------------------------------------------------------|
B-------------7r-7r-7r-5555-4h5p4-555p4h5p4----------------------|
G-----6/8/6/4----------------------------------------------------|
D-4h6------------------------------------------------------------|
A----------------------------------------------------------------|
E----------------------------------------------------------------|

@2:06
e----------------------------------------------------------------|
B-------------7r-7r-7/9/7/5r-------------------------------------|
G-----6/8/6/4----------------------------------------------------|
D-4h6------------------------------------------------------------|
A----------------------------------------------------------------|
E----------------------------------------------------------------|


@2:12
e----------------------------------------------------------------|
B----------------------------------------------------------------|
G-11-13-9----------------9---------------------------------------|
D--x--x-x---x2 (let last-x-ring out)-----------------------------|
A--9-11-7----------------7---------------------------------------|
E----------------------------------------------------------------|


@2:19
bass & drums....


@2:22
e----------------------------------------------------------------|
B----------------------------------------------------------------|
G----------------------------------------------------------------|
D----------------------------------------------------------------|
A--7r/15---------------------------------------------------------|
E----------------------------------------------------------------|


@2:31
e----------------------------------------------------------------|
B----------------------------------------------------------------|
G-13-13--1111---14--13--11--11/13/11/9---------------------------|
D--x--x---x-x----x---x---x---x/-x/-x/x----(x3,let last one ring)-|
A-11-11---9-9---12--11---9---9/11/-9/7---------------------------|
E----------------------------------------------------------------|


@2:43+
e----------------------------------------------------------------|
B----------------------------------------------------------------|
G-13-13--1111---14--13--11--11/13/11/9---------------------------|
D--x--x---x-x----x---x---x---x/-x/-x/x---------------------------|
A-11-11---9-9---12--11---9---9/11/-9/7---------------------------|
E----------------------------------------------------------------|


@3:20 (end)
e------------------------------------------------|
B------------------------------------------------|
G-9-9/13-13-13/9r--------------------------------|
D-x-x/-x--x--x/xr--------------------------------|
A-7-7/11-11-11/7r--------------------------------|
E------------------------------------------------|

Best I could do.  Please cite me if you copy/paste.
            
Submit corrections

comments powered by Disqus
↑ Back to top | Hot Water Music Tabs for It's Hard To Know. Lyrics for acoustic guitar and electric guitar. Tablatures and chords are parodies/interpretations of the original songs. You may use it for private study, scholarship, research or language learning purposes only