>
 >
It's Hard To Know

It's Hard To Know Guitar Tabs

Hot Water Music - It's Hard To Know chords, tabs, tablatures, lyrics

Guitar lessons | Add/correct | Request | Top 50 tabs Artists:  A B C D E F G H I J K L M N O P Q R S T U V W X Y Z 0-9

It's Hard To Know Guitar Tabs – Hot Water Music

CD, Sheet music, Poster

Do you like It's Hard To Know? Share with your friends now
TabsTabs v2

May not be 100%, but it's the best I can do. Oh, and let the notes ring out in the 
of the song... you'll figure it out.

Track 1: Chris(Right Speaker)

      Q    Q    E  Q    E     Q    E  Q      Q    E     E  E  Q    Q    Q
E||------------------------|-------------------------|-----------------------|
B||--------0-------0-------|-------0--L------L-------|-----------------------|
G||*------------4----------|-------4--Lbr----L-------|--9--9--9----8----L----|
D||*-----------------------|----------------------0--|--x--x--L---------9----|
A||---2-----------------4--|--L-------------------0--|--7--7--L---------x----|
E||------------------------|-------------------------|------------------0----|


  E  E  Q    E   E  Q     3x  Q    Q    E  Q    E     Q    E  Q      Q    E
--------------------------||-----------------------|-------------------------|
--------------------------||-------0-------0-------|-------0--L------L-------|
--9--9--9----8h--9-------*||------------4----------|-------4--Lbr----L-------|
--x--x--L-----------9----*||-----------------------|----------------------0--|
--7--7--L-----------x-----||--2-----------------4--|--L-------------------0--|
--------------------0-----||-----------------------|-------------------------|


                                                      PM PM    PM PM    PM PM
  E  E  Q    Q    Q       E  E  Q    E   E  Q         E  E  E  E  E  E  E  E
-----------------------|-------------------------||---------------------------|
-----------------------|-------------------------||---------------------------|
--9--9--9----8---------|--9--9--9----8h--9-------||*--------------------------|
--x--x--L---------9----|--x--x--L-----------9----||*--4--4-----4--4-----------|
--7--7--L---------x----|--7--7--L-----------x----||---2--2-----2--2-----2--2--|
------------------0----|--------------------0----||---------------------0--0--|


     PM PM    PM PM PM       PM PM    PM PM    PM PM
  E  E  E  E  E  E  E  E     E  E  E  E  E  E  E  E
--------------------------|--------------------------|
--------------------------|--------------------------|
--------------------------|--------------------------|
--------------------------|--------------------2--2--|
-----2--2-----2--2--2-----|--4--4-----4--4-----0--0--|
-----0--0-----0--0--0-----|--2--2-----2--2-----------|


     PM PM    PM PM PM         PM PM    PM PM    PM PM
  E  E  E  E  E  E  E  E   3x  E  E  E  E  E  E  E  E
---------------------------||--------------------------|
---------------------------||--------------------------|
--------------------------*||--------------------------|
-----2--2-----2--2--2-----*||--4--4-----4--4-----------|
-----0--0-----0--0--0------||--2--2-----2--2-----2--2--|
---------------------------||--------------------0--0--|


     PM PM    PM PM PM       PM PM    PM PM    PM PM
  E  E  E  E  E  E  E  E     E  E  E  E  E  E  E  E
--------------------------|--------------------------|
--------------------------|--------------------------|
--------------------------|--------------------------|
--------------------------|--------------------2--2--|
-----2--2-----2--2--2-----|--4--4-----4--4-----0--0--|
-----0--0-----0--0--0-----|--2--2-----2--2-----------|


     PM PM
  E  E  E  E  E  E   Q           E   E  E   E   E  E  E   E
---------------------------||--------------------------------|
---------------------------||--------------------------------|
--------------2--2---------||*--13--13-----11--11--------14--|
-----2--2-----2--2---------||*---x---x------x---x---------x--|
-----0--0-----0--0--17\----||---11--11------9---9--------12--|
--------------------17\----||--------------------------------|


         PM
  E   E  E  E   E   E   E  E     E  E  E  E  E  E  E  E
------------------------------|--------------------------|
------------------------------|--------------------------|
-----13--------11--13--11--L--|--9--9--9--9--9--L--9--9--|
------x--x------x---x---x--L--|--x--x--x--x--x-----x--x--|
-----11--9------9--11---9--L--|--7--7--7--7--7--L--7--7--|
------------------------------|--------------------------|


  E  E  E  E  E  E  E  E      E   E  E   E   E  E  E   E
--------------------------|-------------------------------|
--------------------------|-------------------------------|
--9--9--9--9--9--9--9--9--|--13--13-----11--11--------14--|
--x--x--x--x--x--x--x--x--|---x---x------x---x---------x--|
--7--7--7--7--7--7--7--7--|--11--11------9---9--------12--|
--------------------------|-------------------------------|


         PM
  E   E  E  E   E   E   E  E      Q.      Q.     Q       W
------------------------------|-----------------------|--------------------||
------------------------------|-----------------------|--------------------||
-----13--------11--13--11--L--|--14------13------9----|--L----------------*||
------x--x------x---x---x--L--|---x-------x------x----|--L----------------*||
-----11--9------9--11---9--L--|--12------11------7----|--L-----------------||
------------------------------|-----------------------|--------------------||


   Q.      Q.     Q       W                   W
-----------------------|-------------------|-------------------|
-----------------------|-------------------|-------------------|
--14------13------9----|--L----------------|-------------------|
---x-------x------x----|-------------------|-------------------|
--12------11------7----|--L----------------|-------------------|
-----------------------|-------------------|-------------------|


  H        E  E  E  E      Q.      Q.     Q       W
-----------------------|-----------------------|-------------------|
-----------------------|-----------------------|-------------------|
-----------------------|--14------13------9----|--L----------------|
--------------------0--|---x-------x------x----|--L----------------|
--------------------0--|--12------11------7----|--L----------------|
-----------------------|-----------------------|-------------------|


|--------------------|-------------------|-------------------|
|--------------------|-------------------|-------------------|
|*-------------------|-------------------|-------------------|
|*-------------------|-------------------|-------------------|
|--------------------|-------------------|-------------------|
|--------------------|-------------------|-------------------|


                    4x  E   E    E  E   Q.     E
--------------------||----------------------------|
--------------------||----------------------------|
-------------------*||-----13p--11-----11---------|
-------------------*||--9-----------9----------9--|
--------------------||----------------------------|
--------------------||----------------------------|


  E   Q    E   E    E   E   E     Q.     Q.     Q       W
-------------------------------|---------------------|-------------------|
-------------------------------|---------------------|-------------------|
-----13-------13p--11--11p--9--|--9------L------9----|--L----------------|
--L--------9-------------------|--x------L------x----|--L----------------|
-------------------------------|--7------L------7----|--L----------------|
-------------------------------|---------------------|-------------------|


    E   E   E    E    Q     E   E      E  E   Q    E   Q    E
|----------------------------------|---------------------------|
|----------------------------------|---------------------------|
|*-----------------------------11--|---L-----11-------11-------|
|*---------11S--13S--11S----9------|------9--------9--------9--|
|---7S--9--------------------------|---------------------------|
|----------------------------------|---------------------------|


  Q    E  Q    E  E  E     Q    E  Q    E  E  E
------------------------|------------------------|
------------------------|------------------------|
--9-------9-------9-----|--9-------9-------9-----|
-------9-------9-----9--|-------9-------9-----9--|
------------------------|------------------------|
------------------------|------------------------|


  E   E   E    E    Q     E   E      E  E   Q    E   Q    E
---------------------------------|---------------------------|
---------------------------------|---------------------------|
-----------------------------11--|---L-----11-------11-------|
---------11S--13S--11S----9------|------9--------9--------L--|
--7S--9--------------------------|---------------------------|
---------------------------------|---------------------------|


    Q.      Q.     Q       W                       Q.      Q.     Q
------------------------|--------------------||------------------------|
------------------------|--------------------||------------------------|
--/13------11------9----|--L----------------*||--/13------11------9----|
------------------------|-------------------*||------------------------|
------------------------|--------------------||------------------------|
------------------------|--------------------||------------------------|


  Q    Q    E  Q    E       Q.      Q.     Q       Q    E  Q    E  Q
-----------------------|------------------------|-----------------------|
-----------------------|------------------------|-----------------------|
--L----L-------9----L--|--/11------13------9----|--L-------9-------9----|
------------9----------|----x-------x------x----|--L----7-------7-------|
-----------------------|----9------11------7----|--L--------------------|
-----------------------|------------------------|-----------------------|


    Q.      Q.     Q       W                   W
------------------------|-------------------|-------------------|
------------------------|-------------------|-------------------|
--/11------13------9----|--L----------------|--L----------------|
----x-------x------x----|--L----------------|--L----------------|
----9------11------7----|--L----------------|--L----------------|
------------------------|-------------------|-------------------|


                      W                    W
-------------------|--------------------|--------------------|
-------------------|--------------------|--------------------|
-------------------|--------------------|--------------------|
-------------------|--------------------|--------------------|
-------------------|--7~----------------|--L/----------------|
-------------------|--------------------|--------------------|


-------------------|-------------------|-------------------|-------------------|
-------------------|-------------------|-------------------|-------------------|
-------------------|-------------------|-------------------|-------------------|
-------------------|-------------------|-------------------|-------------------|
-------------------|-------------------|-------------------|-------------------|
-------------------|-------------------|-------------------|-------------------|


                         PM                PM PM
   E   E  E   E   E  E   E   E      E   E  E  E   E   E   E  E
--------------------------------|-------------------------------|
--------------------------------|-------------------------------|
--13--13-----11--11---------14--|------13--------11--13--11--9--|
---x---x------x---x----------x--|-------x---------x---x---x--x--|
--11--11------9---9-----12--12--|--11--11--9--9---9--11---9--7--|
--------------------------------|-------------------------------|


                         PM         PM     PM PM
   E   E  E   E   E  E   E   E      E   E  E  E   E   E   E  E
--------------------------------|-------------------------------|
--------------------------------|-------------------------------|
--13--13-----11--11---------14--|------13--------11--13--11--9--|
---x---x------x---x----------x--|-------x---------x---x---x--x--|
--11--11------9---9-----12--12--|--11--11--9--9---9--11---9--7--|
--------------------------------|-------------------------------|


                         PM                PM PM
   E   E  E   E   E  E   E   E      E   E  E  E   E   E   E  E
--------------------------------|-------------------------------|
--------------------------------|-------------------------------|
--13--13-----11--11---------14--|------13--------11--13--11--9--|
---x---x------x---x----------x--|-------x---------x---x---x--x--|
--11--11------9---9-----12--12--|--11--11--9--9---9--11---9--7--|
--------------------------------|-------------------------------|


                                                                   PM
  W                   W                      E   E  E   E   E  E   E   E
-------------------|-------------------||---------------------------------|
-------------------|-------------------||---------------------------------|
--9----------------|--L----------------||*--13--13-----11--11---------14--|
--x----------------|--L----------------||*---x---x------x---x----------x--|
--7----------------|--L----------------||---11--11------9---9-----12--12--|
-------------------|-------------------||---------------------------------|


          PM PM                                          PM
   E   E  E  E   E   E   E  E      E   E  E   E   E  E   E   E
-------------------------------|--------------------------------|
-------------------------------|--------------------------------|
------13--------11--13--11--9--|--13--13-----11--11---------14--|
-------x---------x---x---x--x--|---x---x------x---x----------x--|
--11--11--9--9---9--11---9--7--|--11--11------9---9-----12--12--|
-------------------------------|--------------------------------|


          PM PM
   E   E  E  E   E   E   E  E   6x  Q.     Q.      E.   S
--------------------------------||------------------------|
--------------------------------||------------------------|
------13--------11--13--11--9--*||--9------9------13----L-|
-------x---------x---x---x--x--*||--x------x-------x------|
--11--11--9--9---9--11---9--7---||--7------7------11----L-|
--------------------------------||------------------------|


   E   E   E.   Q     Q    S    H        H
-----------------------------|--------------------||
-----------------------------|--------------------||
---L--13---L---13----11----9-|--L-----------------||
---L---x--------x-----x----x-|--------------------||
---L--11---L---11-----9----7-|--L-----------------||
-----------------------------|--------------------||


Track 2: Chuck (Left Speaker)

E||------------------------|-------------------------|
B||--------0-------0-------|-------0--L------L-------|
G||*------------4----------|-------4--Lbr----L-------|
D||*-----------------------|----------------------0--|
A||---2-----------------4--|--L-------------------0--|
E||------------------------|-------------------------|


  Q    Q    Q    S  S  E      Q    Q    Q    S  S  E    3x
---------------------------|----------------------------||
---------------------------|----------------------------||
-------4----2----1h-2p-1~--|-------4----2----1h-2p-1~--*||
---------------------------|---------------------------*||
---------------------------|----------------------------||
--0------------------------|--0-------------------------||


  Q    Q    E  Q    E     Q    E  Q      Q    E
-----------------------|-------------------------|
-------0-------0-------|-------0--L------L-------|
------------4----------|-------4--Lbr----L-------|
-----------------------|----------------------0--|
--2-----------------4--|--L-------------------0--|
-----------------------|-------------------------|


  Q    Q        Q     Q          Q    Q        Q     Q
------------------------------|------------------------------|
------------------------------|------------------------------|
-------4br~-----------4br~----|-------4br~-----------4br~----|
------------------------------|------------------------------|
------------------------------|------------------------------|
--0------------(0)------------|--0------------(0)------------|


    W                   W                   W
|--------------------|-------------------|-------------------|
|--------------------|-------------------|-------------------|
|*-------------------|-------------------|-------------------|
|*-------------------|-------------------|-------------------|
|--------------------|-------------------|-------------------|
|--------------------|-------------------|-------------------|


  W                 3x  W                   W
--------------------||-------------------|-------------------|
--------------------||-------------------|-------------------|
-------------------*||-------------------|-------------------|
-------------------*||-------------------|-------------------|
--------------------||-------------------|-------------------|
--------------------||-------------------|-------------------|


                                                     PM PM PM PM
  W                   W                     E  E  E  E  E  E  E  E
-------------------|-------------------||---------------------------|
-------------------|-------------------||---------------------------|
-------------------|-------------------||*--4--4--4--------------4--|
-------------------|-------------------||*--4--4--4--4--4--4--4--4--|
-------------------|-------------------||---2--2--2--2--2--2--2--2--|
-------------------|-------------------||---------------------------|


           PM PM
  E  E  E  E  E  Q    E     E  E  E  E  E  E  E  E     E  E  E  E  E  E  Q
-------------------------|--------------------------|-------------------------|
-------------------------|--------------------------|-------------------------|
--L--4--4--------4----2--|--4--2-----2--1-----1--2--|-----2--1-----1--2--4----|
--L--4--4--4--4--4----2--|--4--2-----2--2-----2--2--|-----2--2-----2--2--2----|
--L--2--2--2--2--2----L--|--------------------------|-------------------------|
-------------------------|--------------------------|-------------------------|


           PM PM PM PM                PM PM
  E  E  E  E  E  E  E  E     E  E  E  E  E  Q    E     Q.     Q.     Q
--------------------------|-------------------------|---------------------|
--------------------------|-------------------------|--0------0------0----|
--4--4--4--------------4--|--L--4--4--------4----L--|--4------4------4----|
--4--4--4--4--4--4--4--4--|--L--4--4--4--4--4----L--|--2------2------2----|
--2--2--2--2--2--2--2--2--|--L--2--2--2--2--2----L--|--4------4------4----|
--------------------------|-------------------------|---------------------|


  Q     H         Q          Q.     Q.     Q       W
-------------------------||---------------------|-------------------|
--L----------------------||--0------0------0----|--L----------------|
--LS----6~--------L\----*||--4------4------4----|--L----------------|
--L---------------------*||--2------2------2----|--L----------------|
--L----------------------||--4------4------4----|--L----------------|
-------------------------||---------------------|-------------------|


  PM PM    PM PM    PM PM       PM PM    PM PM PM
  E  E  E  E  E  E  E  E     E  E  E  E  E  E  E  E
--------------------------|--------------------------|
--------------------------|--------------------------|
--------------------------|--------------------------|
--4--4-----4--4-----------|--------------------------|
--2--2-----2--2-----2--2--|-----2--2-----2--2--2-----|
--------------------0--0--|-----0--0-----0--0--0-----|


  PM PM    PM PM    PM PM       PM PM    PM PM PM
  E  E  E  E  E  E  E  E     E  E  E  E  E  E  E  E
--------------------------|--------------------------|
--------------------------|--------------------------|
--------------------------|--------------------------|
--------------------2--2--|-----2--2-----2--2--2-----|
--4--4-----4--4-----0--0--|-----0--0-----0--0--0-----|
--2--2-----2--2-----------|--------------------------|


    PM PM    PM PM    PM PM       PM PM    PM PM PM
    E  E  E  E  E  E  E  E     E  E  E  E  E  E  E  E
|---------------------------|--------------------------|
|---------------------------|--------------------------|
|*--------------------------|--------------------------|
|*--4--4-----4--4-----------|--------------------------|
|---2--2-----2--2-----2--2--|-----2--2-----2--2--2-----|
|---------------------0--0--|-----0--0-----0--0--0-----|


  PM PM    PM PM    PM PM       PM PM    PM PM PM
  E  E  E  E  E  E  E  E     E  E  E  E  E  E  E  E   4x
--------------------------|---------------------------||
--------------------------|---------------------------||
--------------------------|--------------------------*||
--------------------2--2--|-----2--2-----2--2--2-----*||
--4--4-----4--4-----0--0--|-----0--0-----0--0--0------||
--2--2-----2--2-----------|---------------------------||


  PM PM    PM PM    PM PM       PM PM    PM PM PM
  E  E  E  E  E  E  E  E     E  E  E  E  E  E  E  E     E  E  E  E  E  E  Q
--------------------------|--------------------------|-------------------------|
--------------------------|--------------------------|-------------------------|
--------------------------|--------------------------|--------------------2----|
--4--4-----4--4-----------|--------------------------|--4--4--------------2----|
--2--2-----2--2-----2--2--|-----2--2-----2--2--2-----|--4--4--------------0----|
--------------------0--0--|-----0--0-----0--0--0-----|--2--2-------------------|


                                   PM PM PM PM                PM PM
  H        Q    Q         E  E  E  E  E  E  E  E     E  E  E  E  E  Q    E
---------------------||---------------------------|-------------------------|
---------------------||---------------------------|-------------------------|
--L--------L----2----||*--4--4--4--------------4--|--L--4--4--------4----2--|
--L--------L----2----||*--4--4--4--4--4--4--4--4--|--L--4--4--4--4--4----2--|
--L--------L----0----||---2--2--2--2--2--2--2--2--|--L--2--2--2--2--2----L--|
---------------------||---------------------------|-------------------------|


                                                                PM PM PM PM
  E  E  E  E  E  E  E  E     E  E  E  E  E  E  Q       E  E  E  E  E  E  E  E
--------------------------|-------------------------|--------------------------|
--------------------------|-------------------------|--------------------------|
--4--2-----2--1-----1--2--|-----2--1-----1--2--4----|--4--4--4--------------4--|
--4--2-----2--2-----2--2--|-----2--2-----2--2--2----|--4--4--4--4--4--4--4--4--|
--------------------------|-------------------------|--2--2--2--2--2--2--2--2--|
--------------------------|-------------------------|--------------------------|


           PM PM
  E  E  E  E  E  Q    E     Q.     Q.     Q       Q     H         Q
-------------------------|---------------------|-------------------------||
-------------------------|--0------0------0----|--L----------------------||
--L--4--4--------4----L--|--4------4------4----|--LS----6~--------L\----*||
--L--4--4--4--4--4----L--|--2------2------2----|--L---------------------*||
--L--2--2--2--2--2----L--|--4------4------4----|--L----------------------||
-------------------------|---------------------|-------------------------||


  Q.     Q.     Q       W                   Q.     Q.     Q
---------------------|-------------------|---------------------|
--0------0------0----|--L----------------|---------0------L----|
--4------4------4----|--L----------------|--4------4------4----|
--2------2------2----|--L----------------|--2------L------2----|
--4------4------4----|--L----------------|--4------L------4----|
---------------------|-------------------|---------------------|


  W                   Q.     Q.     Q       W
-------------------|---------------------|-------------------|
-------------------|---------0------L----|-------------------|
--L----------------|--4------4------4----|--L----------------|
--L----------------|--2------L------2----|--L----------------|
--L----------------|--4------L------4----|--L----------------|
-------------------|---------------------|-------------------|


  W
-------------------|-------------------|-------------------|-------------------|
-------------------|-------------------|-------------------|-------------------|
--L----------------|-------------------|-------------------|-------------------|
--L----------------|-------------------|-------------------|-------------------|
--L----------------|-------------------|-------------------|-------------------|
-------------------|-------------------|-------------------|-------------------|


-------------------|-------------------|-------------------|-------------------|
-------------------|-------------------|-------------------|-------------------|
-------------------|-------------------|-------------------|-------------------|
-------------------|-------------------|-------------------|-------------------|
-------------------|-------------------|-------------------|-------------------|
-------------------|-------------------|-------------------|-------------------|


-------------------|-------------------|-------------------|
-------------------|-------------------|-------------------|
-------------------|-------------------|-------------------|
-------------------|-------------------|-------------------|
-------------------|-------------------|-------------------|
-------------------|-------------------|-------------------|


  H        E  E  E  E     W                   H        E  E  E  E
-----------------------|-------------------|-----------------------|
-----------------------|-------------------|-----------------------|
--------------------9--|--9----------------|--------------------9--|
--------------------9--|--9----------------|--------------------x--|
--------------------7--|--7----------------|--------------------7--|
-----------------------|-------------------|-----------------------|


                           W  W  W  W
  W                   Q    E  E  E  E  E  E       E  E  E  E  E  E   E   E
-------------------|-------------------------||-----------------------------|
-------------------|-------------------------||-----------------------------|
--9----------------|--L----------------------||*--9--9-----9--9-----11--11--|
--x----------------|--L----------------------||*--x--x-----x--x------x---x--|
--7----------------|--L----7--L--L--L--L--L--||---7--7-----7--7------9---9--|
-------------------|-------------------------||-----------------------------|


  E   E   E  E   E   E   E  E      E   E  E   E   E  E  E   E
-------------------------------|-------------------------------|
-------------------------------|-------------------------------|
-----11--11-----11--11--11-----|--11--11-----11--11-----9---9--|
------x---x------x---x---x-----|---x---x------x---x-----x---x--|
------9---9------9---9---9-----|---9---9------9---9-----7---7--|
-------------------------------|-------------------------------|


  E  E  E  E  E  E  E   E   6x  Q.     Q.     E.   S
----------------------------||-----------------------|
----------------------------||-----------------------|
-----9--9-----9--9--8---8--*||--9------9------9----L-|
-----x--x-----x--x--x---x--*||--x------x------x------|
-----7--7-----7--7--6---6---||--7------7------7----L-|
----------------------------||-----------------------|


   E  E   E.   Q    Q    S    H        H
---------------------------|--------------------||
---------------------------|--------------------||
---L--9---L----9----9----4-|--L-----------------||
---L--x--------x----x----x-|--------------------||
---L--7---L----7----7----2-|--L-----------------||
---------------------------|--------------------||


Duration Legend
---------------
W - whole
H - half
Q - quarter
E - 8th
S - 16th
T - 32nd
X - 64th
. - note dotted
|-n-|  - n-tuplets


Tablature Legend
----------------
L - tied note
x - dead note
g - grace note
(n) - ghost note
> - accentuded note
NH - natural harmonic
AH - artificial harmonic
TH - tapped harmonic
SH - semi harmonic
PH - pitch harmonic
h - hammer on
p - pull off
b - bend
br - bendRelease
pb - preBend
pbr - preBendRelease
brb - bendReleaseBend
\n/ - tremolo bar dip
\n - tremolo bar dive
-/n - tremolo bar Release up
/n\ - tremolo bar inverted dip
/n - tremolo bar return
-\n - tremolo bar Release down
S - shift slide
s - legato slide
/ -  slide into from below or out of upwards
\ -  slide into from above or out of downwards
~ - vibrato
W - wide vibrato
tr - trill
TP - tremolo picking
T - tapping
S - slap
P - pop
< - fade in
^ - brush up
v - brush down


THANKS!

- Mike





Comments


Popular Hot Water Music tabs & chords
Call It Trashing Bass Tabs
Drag My Body Bass Tabs
Driving Home Bass Tabs
Position Bass Tabs
Wayfarer Bass Tabs
No Division Chords
Trusty Chords
Our Own Way Tabs
Paper Thin Tabs
The Traps Ukulele


Song lyrics



↑ Back to top | Tablatures and chords are parodies/interpretations of the original songs. You may use it for private study, scholarship, research or language learning purposes only
© 2014 AZChords.com Contact us | Privacy policy | DMCA | Add/correct tabs | Request tabs | Top 50 tabs