» » »

Hot Hot Heat, Talk To Me Dance With Me Tabs (ver.1)

Artists:  A B C D E F G H I J K L M N O P Q R S T U V W X Y Z # 

Talk To Me Dance With Me Tabs (ver.1)

Hot Hot Heat Tabs
 Rating:
4/5 (10 votes)
Talk To Me Dance With Me lessons Tabs too difficult? Try these video lessons and learn fast
1
                Hot Hot Heat - Talk To Me, Dance With Me

on the main riff the guitarist he hammers from 6-8 but you dont have 
to it sound spiffy without it but does sound better when you hammer
---------------|-----------------------------------------------------------
---------------|-----------------------------------------------------------
---------------|-----------------------------------------------------------
-8-8-68686--x3-|-8-8-686~h8------------------------------------------------
---------------|-----------------------------------------------------------
---------------|-----------------------------------------------------------

                     strumming pattern changes here (listen to song)
---8~---8~--8-------|----8-8-8---------------------------------------------
---8~---8~--8-------|----8-8-8---------------------------------------------
---8~---8~--8--x3---|----8-8-8---------------------------------------------
---8~---6~--8-------|----8-6-8---------------------------------------------
--------------------|------------------------------------------------------
--------------------|------------------------------------------------------

theres a bass fill, from the the first to second verse this is 
the guitar improvised for that..im not totally sure on it but 
it works if you have distortion on (what doesnt?)
--------------------------------------------------------------
--------------------------------------------------------------
--------------------------------------------------------------
--------------------------------------------------------------
--------------------------------------------------------------
--8-686-6-464--4-242-2-02-------------------------------------
pm............................................................

that pretty much all  not too hard the main riff i know is rite the chords 
sorta sound alrite when you play it

main riff-verse one
bass fill-trasition 
part 2   - verse two
main riff-chours
main fiff- verse three
main riff - outro
            
Submit corrections

comments powered by Disqus
↑ Back to top | Hot Hot Heat Tabs for Talk To Me Dance With Me. Lyrics for acoustic guitar and electric guitar. 1 Tablatures and chords are parodies/interpretations of the original songs. You may use it for private study, scholarship, research or language learning purposes only