» » »

Running Out Of Time Tabs (ver.1)

Artists:  A B C D E F G H I J K L M N O P Q R S T U V W X Y Z # 

Running Out Of Time Tabs (ver.1)

Hot Hot Heat
Rating:
5/5 (3 votes)

Tabs too difficult? Try these video lessons and learn fast.
                
Running Out of Time
Hot Hot Heat

this is my first tab, I noticed that there arent any tabs anywhere for this song so I oughta help out.

INTRO
                   E          E6           E          E6
e------------|-0-0-0-0-0-|-0-0-0-0-0-|-0-0-0-0-0-|-0-0-0-0-0-|
B------------|-0-0-0-0-0-|-2-2-2-2-2-|-0-0-0-0-0-|-2-2-2-2-2-|
G------------|-1-1-1-1-1-|-1-1-1-1-1-|-1-1-1-1-1-|-1-1-1-1-1-|
D------------|-2-2-2-2-2-|-2-2-2-2-2-|-2-2-2-2-2-|-2-2-2-2-2-|
A-3-2-0-3-2-0|-2-2-2-2-2-|-2-2-2-2-2-|-2-2-2-2-2-|-2-2-2-2-2-|
E------------|-0-0-0-0-0-|-0-0-0-0-0-|-0-0-0-0-0-|-0-0-0-0-0-|

VERSE
e---------|-----------|
B-2-0---0-|-2-0-2-0-0-|
G-----1---|-----------|
D---------|-----------|2x
A---------|-----------|
E---------|-----------|
      A              Am           E   E6
 I'm wallowing in a pool of gasoline

repeat verse, then:
e---------------------|
B---------------------|
G---------------1-----|
D-2-1-2-1-2-1-2-------|
A-----------------2---|
E---------------------|

PRE-CHORUS
          B         E
e--2-2-2-2-2-2-2-2--0-|
B--4-4-4-4-4-4-4-4--0-|
G--4-4-4-4-4-4-4-4--1-|
D--4-4-4-4-4-4-4-4--2-|
A--2-2-2-2-2-2-2-2--2-|
E--x-x-x-x-x-x-x-x--0-|

CHORUS
                    Am    E
I'm running out of time....
                    Am    E
I'm running out of time....
                    Am
I'm running out of time....
      C  C/B Am7 E    
I've run out of time

   C   C/B  Am7   E
e--0-|--0-|--0-|--0--|
B--1-|--1-|--1-|--0--|
G--0-|--0-|--0-|--1--|
D--2-|--2-|--2-|--2--|
A--3-|--2-|--0-|--2--|
E--0-|--0-|--0-|--0--|
            
Tabs too difficult? Try these video lessons and learn fast.




comments powered by Disqus
↑ Back to top | Tablatures and chords are parodies/interpretations of the original songs. You may use it for private study, scholarship, research or language learning purposes only