» » »

No Not Now Bass tabs (ver.1)

Artists:  A B C D E F G H I J K L M N O P Q R S T U V W X Y Z # 

No Not Now Bass tabs (ver.1)

Hot Hot Heat
Rating:
0/5 (0 votes)

Hard to play? Try these video lessons and learn fast.
                "(1)
Submission by Paulie Jay




INTRO

Silent for the first 4 bars then

G------------------|-----------------|-----------------|-------------|
D------------------|-----------------|-----------------|-0--2--0-----|
A------------------|-0-0-0-0-0-0-0-0-|-2-2-2-2-2-2-2-2-|---------4---|
E--0-0-0-0-0-0-0-0-|-----------------|-----------------|-------------|

G------------------|-----------------|-----------------|-------------|
D------------------|-----------------|-----------------|-0--2--0-----|
A------------------|-0-0-0-0-0-0-0-0-|-2-2-2-2-2-2-2-2-|---------4---|
E--0-0-0-0-0-0-0-0-|-----------------|-----------------|-------------|

G------------------|-----------------|---------------9-|P7-7---9p7-7-|
D------------------|----------------7|H9-9---7H9-9-----|-------------|
A------------------|-0-0-0-0---------|-----------------|-------------|
E--0-0-0-0-0-0-0-0-|-----------------|-----------------|-------------|


VERSE 1
"Some of us..."
G---------------|--------------|--------------|--------------|
D---------------|--------------|--------------|--------------|
A--2--2--2--2-0-|-5--5--7--7-0-|-2--2--2--2-0-|-5--5--7--7-0-|
E---------------|--------------|--------------|--------------|


G---------------|--------------|--------------|--------------|
D---------------|--------------|--------------|--------------|
A--2--2--2--2-0-|-5--5--7--7-0-|-2--2--2--2-0-|-5--5--7--7---|
E---------------|--------------|--------------|------------7-|


CHORUS
"Oh no..."
G------------------|-----------------|-----------------|-------------|
D------------------|-----------------|-----------------|-0--2--0-----|
A------------------|-0-0-0-0-0-0-0-0-|-2-2-2-2-2-2-2-2-|---------4---|
E--0-0-0-0-0-0-0-0-|-----------------|-----------------|-------------|

G------------------|-----------------|-----------------|-------------|
D------------------|-----------------|-----------------|-0--2--0-----|
A------------------|-0-0-0-0-0-0-0-0-|-2-2-2-2-2-2-2-2-|---------4---|
E--0-0-0-0-0-0-0-0-|-----------------|-----------------|-------------|

G------------------|-----------------|
D------------------|-----------------|
A------------------|-0-0-0-0-0-0-0-0-|
E--0-0-0-0-0-0-0-0-|-----------------|


"Nobody like a child..."
G------------------|-----------------|-----------------|-----------------|
D------------------|-----------------|-----------------|-----------------|
A--2-2-2-2-2-2-2-2-|-0-0-0-0-0-0-0-0-|-----------------|-----------------|
E------------------|-----------------|-3-3-3-3-3-3-3-3-|-0-0-0-0-0-0-0-0-|


G------------------|-----------------|-----------------|------------------|
D------------------|-----------------|-----------------|------------------|
A--5-5-5-5-5-5-5-5-|-----------------|-2-2-2-2-2-2-2-2-|-2-2-2-2-2-2-2-2-0|
E------------------|-0-0-0-0-0-0-0-0-|-----------------|------------------|


G------------------|-----------------|-----------------|-----------------|
D------------------|-----------------|-----------------|-----------------|
A--2-2-2-2-2-2-2-2-|-0-0-0-0-0-0-0-0-|-----------------|-----------------|
E------------------|-----------------|-3-3-3-3-3-3-3-3-|-0-0-0-0-0-0-0-0-|


G------------------|-----------------|-----------------|------------------|
D------------------|-----------------|-----------------|------------------|
A--5-5-5-5-5-5-5-5-|-----------------|-2-2-2-2-2-2-2-2-|-2-2-2-2-2-2-2-2-0|
E------------------|-0-0-0-0-0-0-0-0-|-----------------|------------------|


VERSE 2 - exactly the same as verse 1

CHORUS 2 - exactly the same as chorus one, just extend the last run of 
B eighths by a bar.

Performance tips - 
Play the verses with a good amount of bounce.
Play the choruses evenly
"            
Hard to play? Try these video lessons and learn fast. | Correct




comments powered by Disqus
↑ Back to top | Tablatures and chords are parodies/interpretations of the original songs. You may use it for private study, scholarship, research or language learning purposes only