>
 >
Naked In The City

Naked In The City Guitar Tabs

Hot Hot Heat - Naked In The City chords, tabs, tablatures, lyrics

Guitar lessons | Add/correct | Request | Top 50 tabs Artists:  A B C D E F G H I J K L M N O P Q R S T U V W X Y Z 0-9

Naked In The City Guitar Tabs – Hot Hot Heat

CD, Sheet music, Poster

Do you like Naked In The City? Share with your friends now
Tabs
-------------------------------------------------------------------------------
                             Naked in the city  - Hot Hot Heat
-------------------------------------------------------------------------------

Tuning:Standard

intro.

   let ring out
e|-0----------------0-------------0---------------0--------------------------|
B|-4------------4-------4---------4------------4------4----------------------|
G|-6--------6---------------6-----6--------6--------------6------------------|
D|---------------------------------------------------------------------------|
A|---------------------------------------------------------------------------|
E|---------------------------------------------------------------------------|

e|---------------------------------------------------------------------------|
B|---------------------------------------------------------------------------|
G|-8-8------8-------8-------8-------8----------------------------------------|
D|-8-8------8-------8-------8-------8----------4---------4------------------4|
A|-8-8----8-------8-------8-------8------4--6------4--6------4--6--4--4--6---|
E|-6-6--6-------6-------6-------6--------------------------------------------|

e|---------------------------------------------------------------------------|
B|---------------------------------------------------------------------------|
G|-----8------8------8------8----------------------------------------8------8|
D|-----8------8------8------8--------4----------------4--------4-----8------8|
A|---8------8------8------8----4--6-----4--6--4--4--6----4--6-------8------8-|
E|-6------6------6------6-----------------------------------------6------6---|

Chorus

  repeat twice

e||-----6-----4------------------6-----4-------------------6-----4------------|
B||--------6-----4--6-----4---------6-----4--6-----4----------6-----4---------|
G||-/3-----------------6-----/3-----------------6------/3--------------6-----4|
D||-----------------------------------------------------------------------6---|
A||---------------------------------------------------------------------------|
E||---------------------------------------------------------------------------|

e|-----6-----4---------------------------------------------------------------||
B|--------6-----4--6-----4-----4-----4-----4---------------------------------||
G|-/3-----------------6-----6-----6-----6------------------------------------||
D|---------------------------------------------------------------------------||
A|---------------------------------------------------------------------------||
E|---------------------------------------------------------------------------||

Verse
                                    ring                                  ring
e|------------6---------------------0------------------6--------------------0|
B|-5-h6-p5----6----5-h6-p5----------2--------5-h6-p5---6----5-h6-p5---5-h6--2|
G|---------3-----3---------3-h6--3--3----------------3----3---------3-------3|
D|---------------------------------------------------------------------------|
A|---------------------------------------------------------------------------|
E|---------------------------------------------------------------------------|
                        out of meter                            out of meter
e|---------------------------------------------------------------------------|
B|---------------------------------------------------------------------------|
G|-3--6/8--10------6/8--9--99--9--99-----3--6/8--10-----6/8--9--99--9--99--9-|
D|---------------4-----------------------------------4-----------------------|
A|-1--4/6--8-------4/6--7--77--7--77-----1--4/6--8------4/6--7--77--7--77--7-|
E|---------------2-----------------------------------2-----------------------|

chorus
  
                   repeat twice

e|---------------||------6-----4------------------6-----4----------------------|
B|---------------||---------6-----4--6-----4---------6-----4--6-----4----------|
G|-----8------8--||--/3-----------------6-----/3-----------------6-------------|
D|-----8------8--||------------------------------------------------------------|
A|---8------8----||------------------------------------------------------------|
E|-6------6------||------------------------------------------------------------|

e|-----6-----4------------------6-----4-------------------------------------||-|
B|--------6-----4--6-----4---------6-----4--6-----4-----4-----4-----4-----4-||-|
G|-/3-----------------6-----/3-----------------6-----6-----6-----6-----6----||-|
D|--------------------------------------------------------------------------||-|
A|--------------------------------------------------------------------------||-|
E|--------------------------------------------------------------------------||-|

 here Dante plays off of the main beat

e|-0---0---0---0---0---0---0---0---0---0---0---0---0---0---0---0---0---0--00-|
B|-4---4---4---4---4---4---4---4---4---4---4---4---4---4---4---4---4---4--44-|
G|-6---6---6---6---6---6---6---6---6---6---6---6---6---6---6---6---6---6--66-|
D|---------------------------------------------------------------------------|
A|---------------------------------------------------------------------------|
E|---------------------------------------------------------------------------|

ring out through the ending

e|-0-0-----------------------------------------------------------------------|
b|-4-4/5--5--5--5--5--5--5--5--5--5--5--5--5--5--5--5--5--5--5--5--5---------|
G|-6-6/7--7--7--7--7--7--7--7--7--7--7--7--7--7--7--7--7--7--7--7--7---------|
D|-----0--0--0--0--0--0--0--0--0--0--0--0--0--0--0--0--0--0--0--0--0---------|
A|-----0--0--0--0--0--0--0--0--0--0--0--0--0--0--0--0--0--0--0--0--0---------|
E|---------------------------------------------------------------------------|

That's pretty close. it sounds better with a band to back it up. Let me know
if it needs any revision.

have fun!

| /  slide up
| \  slide down
| h  hammer-on
| p  pull-off
| ~  vibrato
| +  harmonic
| x  Mute note
===============================================================================





Comments


Popular Hot Hot Heat tabs & chords
Oh, Goddamnit 1 Bass Tabs
Tokyo Vogue Bass Tabs
Elevator Chords
Goodnight, Goodnight 1 Chords
You Owe Me An Iou 1 Chords
Dirty Mouth Tabs
Get In Or Get Out Tabs
Goodnight, Goodnight Tabs
Harmonicas And Tambourines Tabs
Conversation Ukulele


Song lyrics



↑ Back to top | Tablatures and chords are parodies/interpretations of the original songs. You may use it for private study, scholarship, research or language learning purposes only
© 2014 AZChords.com Contact us | Privacy policy | DMCA | Add/correct tabs | Request tabs | Top 50 tabs