» » »

Harmonicas And Tambourines Tabs (ver.1)

Artists:  A B C D E F G H I J K L M N O P Q R S T U V W X Y Z # 

Harmonicas And Tambourines Tabs (ver.1)

Hot Hot Heat
Rating:
5/5 (2 votes)

Tabs too difficult? Try these video lessons and learn fast.
                Here's the Intro, play it twice:

e|---------------------------------------------------------------------------|
B|---------------------------------------------------------------------------|
G|---------------------------------------------------------------------------|
D|-7-7-7-7-7-5-5-7-7-7-9-9-7-7-10-10-10-9-9-10-10-12-12-12-10-10-9-9---------|
A|---------------------------------------------------------------------------|
E|---------------------------------------------------------------------------|

Am                 Dm         C
Saturday night the cigarettes come crawling out
         G                     Am
With the boys who crave regrets
                 Dm              C
Bandana hanging around her neck
                        G
A checkered flag and a crowd who's singing
Am    Dm  C         G               Am
"Save us from this life of nine to five"
      Dm
Four, three, two
C                  G           F
One night left for us to feel alive

So why not do it forever?


Chorus:

C      G             Am
Harmonicas and tambourines
         F                      G                          C
They're living in her head but dying in her magazines
            G                     Am
Her Chelsea clothes and Brooklyn dreams
        F                      G
They're living in her head but dying in her magazines

Do the Intro once here:

e|---------------------------------------------------------------------------|
B|---------------------------------------------------------------------------|
G|---------------------------------------------------------------------------|
D|-7-7-7-7-7-5-5-7-7-7-9-9-7-7-10-10-10-9-9-10-10-12-12-12-10-10-9-9---------|
A|---------------------------------------------------------------------------|
E|---------------------------------------------------------------------------|

Same chords as last verse:

Say maybe yes, say maybe no
A bit too loud and the lights a bit too low
She never needed a cameo until the chain gang started to sing
"Save us from this life of nine to five"
Four, three, two
Once night left for us to feel alive
So why not do it forever?


Harmonicas and tambourines
They're living in her head but dying in her magazines
Her Chelsea clothes and Brooklyn dreams
They're living in her head but dying in her magazines


Bridge:
e|---------------------------------------------------------------------------|
B|---------3-3-0-0-1-1-0-0-----0-0------------3-3-0-0-1-1-0-0-5-5-3-3--------|
G|-2-2-0-0-----------------0-0--------2-2-0-0--------------------------------|
D|---------------------------------------------------------------------------|
A|---------------------------------------------------------------------------|
E|---------------------------------------------------------------------------|

e|---------------------------------------------------------------------------|
B|---------3-3-0-0-1-1-0-0-----0-0-------------------------------------------|
G|-2-2-0-0-----------------0-0------------4-4-4-4-5-5-5----------------------|
D|----------------------------------3-3-3---------------5-5-5----------------|
A|---------------------------------------------------------------------------|
E|---------------------------------------------------------------------------|

e|---------------------------------------------------------------------------|
B|-------------5-5-5---------------------------------------------------------|
G|-------4-4-4-------4-4-4---------------------------------------------------|
D|-3-3-3---------------------------------------------------------------------|
A|---------------------------------------------------------------------------|
E|---------------------------------------------------------------------------|


Chorus 3x:
Harmonicas and tambourines
They're living in her head but dying in her magazines
Her Chelsea clothes and Brooklyn dreams
They're living in her head but dying in her magazines

only my second tab, so I need all the constructive criticism I can get!
            
Tabs too difficult? Try these video lessons and learn fast.




comments powered by Disqus
↑ Back to top | Tablatures and chords are parodies/interpretations of the original songs. You may use it for private study, scholarship, research or language learning purposes only