>
 >
Walk Like A Zombie

Walk Like A Zombie Guitar Tabs

Horrorpops - Walk Like A Zombie chords, tabs, tablatures, lyrics

Guitar lessons | Add/correct | Request | Top 50 tabs Artists:  A B C D E F G H I J K L M N O P Q R S T U V W X Y Z 0-9

Walk Like A Zombie Guitar Tabs – Horrorpops

CD, Sheet music, Poster

Do you like Walk Like A Zombie? Share with your friends now
Bass TabsTabs
-------------------------------------------------------------------------------
-------------------------------------------------------------------------------

Tuning: Standard

INTRO
e|-------------------------------------------------|
B|-------------------------------------------------|
G|---9~-------9-7-9-5~------9-7---------------9~---|
D|-7----5/7------------5/7------7~---5/7-10-7------|
A|-------------------------------------------------|
E|-------------------------------------------------|


VERSE: PART 1 (Palm mute all)
e|----------------------------------------------------|
B|----------------------------------------------------|
G|----------------------------------------------------|
D|----------------------------------------------------|
A|--------------------------3-33-33-33-33-33-33-33-3--|
E|--5-55-55-55-55-55-55-55-5--------------------------|


PART 2
e|----------------------------------------------------|
B|----------------------------------------------------|
G|------2-----2-----2-----2---------------------------|
D|---3-33-33-33-33-33-33-33-3-------------------------|
A|----------------------------5-55-55-55-55-55-55-55-5|
E|----------------------------------------------------|


CHORUS 
e|---------------------------------------------------------------------------|
B|---------------------------------------------------------------------------|
G|--------------------99-999-999-999-9--55-555-555-555-5--77-777-777-777-7---|
D|--55-555-555-555-5--99-999-999-999-9--55-555-555-555-5--77-777-777-777-7---|
A|--55-555-555-555-5--77-777-777-777-7--33-333-333-333-3--55-555-555-555-5---|
E|--33-333-333-333-3---------------------------------------------------------|


SOLO (I'm not 100% sure this is correct, but it's pretty close)
e|---------------------------------------------------------------------------|
B|---------------------------------------------------------------------------|
G|-9~~~~~-99-1010-12-10-9-------------------------------------------12-10-9--|
D|----------------------12-9-10-12-10-9-7-12-10-9-7-9-12-10-9-10-12--------12|
A|---------------------------------------------------------------------------|
E|---------------------------------------------------------------------------|

(continued)
e|---------------------------------------------------------------------------|
B|---------------------------------------------------------------------------|
G|------------------------------------------9-9999---------------------------|
D|10-9-10-12-10-9-7-7777-9-9999-10-10101010--------7-7777-9-9999-10-10101010-|
A|---------------------------------------------------------------------------|
E|---------------------------------------------------------------------------|

(continued again) 
e|---------------------------------------------------------------------------|
B|-----------------------------------------------------------13-13131313-15~-|
G|9-9-12-10-9----9----121212-10-9-10-14-14141414-16-16161616-----------------|
D|------------12---12--------------------------------------------------------|
A|---------------------------------------------------------------------------|
E|---------------------------------------------------------------------------|


END ON
e|------|
B|------|
G|------|
D|--5~--|
A|--5~--|
E|--3~--|

INTRO 
VERSE PT.1&2    
INTRO           
CHORUS  X2
INTRO          
VERSE PT.2      
INTRO          
CHORUS  X2
SOLO                      
CHORUS  X4



| /  slide up
| \  slide down
| h  hammer-on
| p  pull-off
| ~  vibrato
| +  harmonic
| x  Mute note
===============================================================================





Comments


Popular Horrorpops tabs & chords
Thelma And Louise Bass Tabs
Undefeated Bass Tabs
Who's Leading You Now? Bass Tabs
Where They Wander Chords
Drama Queen Tabs
Drama Queen 1 Tabs
Hit 'n' Run Tabs
Psychobitches Outta Hell Tabs
Undefeated Tabs
Where They Wander Ukulele


Song lyrics



↑ Back to top | Tablatures and chords are parodies/interpretations of the original songs. You may use it for private study, scholarship, research or language learning purposes only
© 2014 AZChords.com Contact us | Privacy policy | DMCA | Add/correct tabs | Request tabs | Top 50 tabs