» » »

Horrorpops, Walk Like A Zombie Bass tabs (ver.1)

Artists:  A B C D E F G H I J K L M N O P Q R S T U V W X Y Z # 

Walk Like A Zombie Bass tabs (ver.1)

Horrorpops Tabs
 Rating:
4.2/5 (5 votes)
Walk Like A Zombie lessons Tabs too difficult? Try these video lessons and learn fast
                #------------------------------------------------------------------------------##

                          WALK LIKE A ZOMBIE (Bassline)
                            As recorded by HorrorPops
                       (From the 2005 Album BRING IT ON!)


Gtr I (E A D G) - 'Untitled'

   Intro
    Q=143
   4/4
    Gtr I
    Q  Q  Q  Q    Q  Q  Q  Q    Q  Q  Q  Q    Q  Q  Q  Q
||--------------|-------------|-------------|-------------|
||o-------------|-------------|-------------|-------------|
||o-3--3--0-----|-0-----0--2--|-3--3--0-----|-0-----0--2--|
||-----------3--|----3--------|----------3--|----3--------|


  Q  Q  Q   Q    Q  Q  Q   Q    Q  Q  Q  Q    Q  Q  Q  Q
|--------------|--------------|-------------|--------------||
|--------------|--------------|-------------|-------------o||
|-8--8--7------|-8--8--8--10--|-5--5--5--5--|-5--5--5--5--o||
|----------10--|--------------|-------------|--------------||


 Verse 1, 2
  $
  Q  Q  Q  Q    Q  Q  Q  Q    Q  Q  Q  Q    Q  Q  Q  Q
|-------------|-------------|-------------|-------------|
|-------------|-------------|-------------|-------------|
|-------------|-------------|-3--3--3--3--|-3--3--3--3--|
|-5--5--5--5--|-5--5--5--5--|-------------|-------------|


  Q  Q  Q  Q    Q  Q  Q  Q    Q  Q  Q  Q    Q  Q  Q  Q
|-------------|-------------|-------------|-------------|
|-------------|-------------|-------------|-------------|
|-8--8--8--8--|-8--8--8--8--|-5--5--5--5--|-5--5--5--5--|
|-------------|-------------|-------------|-------------|


  Q  Q  Q  Q    Q  Q  Q  Q    Q  Q  Q  Q    Q  Q  Q  Q
|-------------|-------------|-------------|-------------|
|-------------|-------------|-------------|-------------|
|-------------|-------------|-3--3--3--3--|-3--3--3--3--|
|-5--5--5--5--|-5--5--5--5--|-------------|-------------|


  Q  Q  Q  Q    Q  Q  Q  Q    Q  Q  Q  Q    Q  Q  Q  Q
|-------------|-------------|-------------|-------------|
|-------------|-------------|-------------|-------------|
|-8--8--8--8--|-8--8--8--8--|-5--5--5--5--|-5--5--5--5--|
|-------------|-------------|-------------|-------------|


 Chorus
  Q  Q  Q  Q    Q  Q  Q  Q    Q  Q  Q  Q    Q  Q  Q  Q
|-------------|-------------|-------------|-------------|
|-5--5--5--5--|-5--5--5--7--|-------------|-------------|
|-------------|-------------|-7--7--7--7--|-7--7--7--7--|
|-------------|-------------|-------------|-------------|


  Q  Q  Q  Q    Q  Q  Q  Q    Q  Q  Q  Q    Q  Q  Q  Q
|-------------|-------------|-------------|-------------|
|-------------|-------------|-------------|-------------|
|-3--3--3--3--|-3--3--3--3--|-5--5--5--5--|-5--5--5--5--|
|-------------|-------------|-------------|-------------|


  Q  Q  Q  Q    Q  Q  Q  Q    Q  Q  Q  Q    Q  Q  Q  Q
|-------------|-------------|-------------|-------------|
|-5-----5-----|-5-----5-----|----9-----9--|----9-----9--|
|----5-----5--|----5-----5--|-7-----7-----|-7-----7-----|
|-------------|-------------|-------------|-------------|


                                              To Coda
  Q  Q  Q  Q    Q  Q  Q  Q    Q  Q  Q  Q    Q  Q  Q  Q
|-------------|-------------|-------------|-------------|
|-------------|-------------|-------------|-------------|
|-3--3--3--3--|-3--3--3--3--|-5--5--5--5--|-5--5--5--5--|
|-------------|-------------|-------------|-------------|


  Q  Q  Q  Q    Q  Q  Q  Q    Q  Q  Q  Q    Q  Q  Q  Q
|-------------|-------------|-------------|-------------|
|-------------|-------------|-------------|-------------|
|-3--3--0-----|-0-----0--2--|-3--3--0-----|-0-----0--2--|
|----------3--|----3--------|----------3--|----3--------|


                                           D.S. al Coda
  Q  Q  Q   Q    Q  Q  Q   Q    Q  Q  Q  Q    Q  Q  Q  Q
|--------------|--------------|-------------|-------------|
|--------------|--------------|-------------|-------------|
|-8--8--7------|-8--8--8--10--|-5--5--5--5--|-5--5--5--5--|
|----------10--|--------------|-------------|-------------|


   Guitar Solo
    &
    Q  Q  Q  Q    Q  Q  Q  Q    Q  Q  Q  Q    Q  Q  Q  Q
||--------------|-------------|-------------|------------|
||o-------------|-------------|-------------|------------|
||o-------------|-------------|-3--3--3--3--|-3--3--3--3-|
||--5--5--5--5--|-5--5--5--5--|-------------|------------|


  Q  Q  Q  Q    Q  Q  Q  Q    Q  Q  Q  Q    Q  Q  Q  Q
|-------------|-------------|-------------|--------------||
|-------------|-------------|-------------|-------------o||
|-8--8--8--8--|-8--8--8--8--|-5--5--5--5--|-5--5--5--5--o||
|-------------|-------------|-------------|--------------||


 Out-Chorus
  Q  Q  Q  Q    Q  Q  Q  Q    Q  Q  Q  Q    Q  Q  Q  Q
|-------------|-------------|-------------|-------------|
|-5--5--5--5--|-5--5--5--7--|-------------|-------------|
|-------------|-------------|-7--7--7--7--|-7--7--7--7--|
|-------------|-------------|-------------|-------------|


  Q  Q  Q  Q    Q  Q  Q  Q    Q  Q  Q  Q    Q  Q  Q  Q
|-------------|-------------|-------------|-------------|
|-------------|-------------|-------------|-------------|
|-3--3--3--3--|-3--3--3--3--|-5--5--5--5--|-5--5--5--5--|
|-------------|-------------|-------------|-------------|


  Q  Q  Q  Q    Q  Q  Q  Q    Q  Q  Q  Q    Q  Q  Q  Q
|-------------|-------------|-------------|-------------|
|-5-----5-----|-5-----5-----|----9-----9--|----9-----9--|
|----5-----5--|----5-----5--|-7-----7-----|-7-----7-----|
|-------------|-------------|-------------|-------------|


  Q  Q  Q  Q    Q  Q  Q  Q    Q  Q  Q  Q    Q  Q  Q  Q
|-------------|-------------|-------------|-------------|
|-------------|-------------|-------------|-------------|
|-3--3--3--3--|-3--3--3--3--|-5--5--5--5--|-5--5--5--5--|
|-------------|-------------|-------------|-------------|


  Q  Q  Q  Q    Q  Q  Q  Q    Q  Q  Q  Q    Q  Q  Q  Q
|-------------|-------------|-------------|-------------|
|-5--5--5--5--|-5--5--5--7--|-------------|-------------|
|-------------|-------------|-7--7--7--7--|-7--7--7--7--|
|-------------|-------------|-------------|-------------|


  Q  Q  Q  Q    Q  Q  Q  Q    Q  Q  Q  Q    Q  Q  Q  Q
|-------------|-------------|-------------|-------------|
|-------------|-------------|-------------|-------------|
|-3--3--3--3--|-3--3--3--3--|-5--5--5--5--|-5--5--5--5--|
|-------------|-------------|-------------|-------------|


  Q  Q  Q  Q    Q  Q  Q  Q    Q  Q  Q  Q    Q  Q  Q  Q
|-------------|-------------|-------------|-------------|
|-5--5--5--5--|-5--5--5--5--|----9-----9--|----9-----9--|
|-------------|-------------|-7-----7-----|-7-----7-----|
|-------------|-------------|-------------|-------------|


  Q  Q  Q  Q    Q  Q  Q  Q    Q  Q  Q  Q    Q  Q  Q  Q
|-------------|-------------|-------------|-------------|
|-------------|-------------|-------------|-------------|
|-3--3--3--3--|-3--3--3--3--|-5--5--5--5--|-5--5--5--5--|
|-------------|-------------|-------------|-------------|


  W          +W
|----------|--------|
|-5--------|-(5)----|
|----------|--------|
|----------|--------|


Duration Legend
---------------
W - whole; H - half; Q - quarter; E - 8th; S - 16th; T - 32nd; X - 64th; a - acciaccatura
+ - note tied to previous; . - note dotted; .. - note double dotted
Uncapitalized letters represent notes that are staccato (1/2 duration)
Irregular groupings are notated above the duration line
Duration letters will always appear directly above the note/fret number it represents the
duration for.  Duration letters with no fret number below them represent rests.  Multi-
bar rests are notated in the form Wxn, where n is the number of bars to rest for.  Low
melody durations appear below the staff

Tablature Legend
----------------
 h   - hammer-on
 p   - pull-off
 b   - bend
 pb  - pre-bend
 r   - bend release (if no number after the r, then release immediately)
 /\  - slide into or out of (from/to "nowhere")
 s   - legato slide
 S   - shift slide
  - natural harmonic
[n]  - artificial harmonic
n(n) - tapped harmonic
 ~   - vibrato
 tr  - trill
 T   - tap
 TP  - trem. picking
 PM  - palm muting
\n/  - tremolo bar dip; n = amount to dip
 \n  - tremolo bar down
 n/  - tremolo bar up
/n\  - tremolo bar inverted dip
 =   - hold bend; also acts as connecting device for hammers/pulls
 <>  - volume swell (louder/softer)
 x   - on rhythm slash represents muted slash
 o   - on rhythm slash represents single note slash

Misc Legend
-----------
 |  - bar
||  - double bar
||o - repeat start
o|| - repeat end
*|  - double bar (ending)
 :  - bar (freetime)
 $  - Segno
 &  - Coda
Tempo markers -  = BPM(8/16=s8/s16), where s8 = swing 8ths, s16 = swing 16ths


***************************************************************************************
***************************************************************************************
            
Submit corrections

comments powered by Disqus
↑ Back to top | Horrorpops Bass for Walk Like A Zombie. Lyrics for acoustic guitar and electric guitar. Tablatures and chords are parodies/interpretations of the original songs. You may use it for private study, scholarship, research or language learning purposes only