» » »

Horrorpops, Julia Bass tabs (ver.2)

Artists:  A B C D E F G H I J K L M N O P Q R S T U V W X Y Z # 

Julia Bass tabs (ver.2)

Horrorpops Tabs
Rating:
5/5 (1 vote)
Hard to play? Try these video lessons and learn fast.
                Intro and verse
g------------------------------------------------------|
d-0-0-3-3----------------------------------------------|
a---------1-1-4-4--------------------------------------|
e------------------------------------------------------|

chorus
g------------------------------------------------------|
d-0-0-0-0----------------------------------------------|
a---------1-1-1-1-3-3-3-3-0-0-0-0----------------------|
e------------------------------------------------------|

bridge
g------------------------------------------------------|
d-0-0-0-0-3-3-3-3--------------------------------------|
a-----------------1-1-1-1-1-1-1-1----------------------|
e------------------------------------------------------|

thats all there is.  just listen for the timing because some tones change with the 
hits she does
            

comments powered by Disqus
↑ Back to top | Horrorpops Bass for Julia. Lyrics for acoustic guitar and electric guitar. Tablatures and chords are parodies/interpretations of the original songs. You may use it for private study, scholarship, research or language learning purposes only