» » »

Horrorpops, Julia Bass tabs (ver.1)

Artists:  A B C D E F G H I J K L M N O P Q R S T U V W X Y Z # 

Julia Bass tabs (ver.1)

Horrorpops Tabs
 Rating:
4/5 (5 votes)
Julia lessons Tabs too difficult? Try these video lessons and learn fast
                -------------------------------------------------------------------------------
-------------------------------------------------------------------------------


VERSE:
G|------------------|
D|-----3-3----------|
A|-5-5-----1-1-4-4--|  X14
E|------------------|

CHORUS:
G|----------------------------------|
D|----------------------------------|
A|-5-5-5-5-1-1-1-1-3-3-3-3----------|  X2
E|-------------------------5-5-5-5--|

VERSE:
G|------------------|
D|-----3-3----------|
A|-5-5-----1-1-4-4--|  X7
E|------------------|

G|-------------|
D|-----3-3-----|
A|-5-5-----41--|
E|-------------|

G|------------------|
D|-----3-3----------|
A|-5-5-----1-1-4-4--|  X2
E|------------------|

CHORUS:
G|----------------------------------|
D|----------------------------------|
A|-5-5-5-5-1-1-1-1-3-3-3-3----------|  X2
E|-------------------------5-5-5-5--|

BRIDGE:
G|--------------------------|
D|--------------------------|
A|-5-5-5-5-7-7-7-7-1-1-1-1--|  X4
E|--------------------------|

CHORUS:
G|----------------------------------|
D|----------------------------------|
A|-5-5-5-5-1-1-1-1-3-3-3-3----------|  X2
E|-------------------------5-5-5-5--|

G|------------------|
D|-----3-3----------|
A|-5-5-----1-1-4-4--|  X4
E|------------------|

G|-----|
D|-----|
A|-5~--|
E|-----|


| /  slide up
| \  slide down
| h  hammer-on
| p  pull-off
| ~  vibrato
| +  harmonic
| x  Mute note
===============================================================================
            
Submit corrections

comments powered by Disqus
↑ Back to top | Horrorpops Bass for Julia. Lyrics for acoustic guitar and electric guitar. Tablatures and chords are parodies/interpretations of the original songs. You may use it for private study, scholarship, research or language learning purposes only