» » »

Hate To Say That I Told You So Bass tabs (ver.1)

Artists:  A B C D E F G H I J K L M N O P Q R S T U V W X Y Z # 

Hate To Say That I Told You So Bass tabs (ver.1)

Hives
Rating:
0/5 (0 votes)

Hard to play? Try these video lessons and learn fast.
                G-------------------------------------------
D-------------------------------------------
A----------------------8-8-8-8--------------
E--10-10-10-10-8-8-8-8---------6-6-6-6------

G-------------------------------------------
D-------------------------------------------
A----------------------8-8-8-8--------------
E--10-10-10-10-8-8-8-8---------6-6-6-6------
There is the notes for ya'll, now you just figure out the rythem.
            
Hard to play? Try these video lessons and learn fast. | Correct




comments powered by Disqus
↑ Back to top | Tablatures and chords are parodies/interpretations of the original songs. You may use it for private study, scholarship, research or language learning purposes only