» » »

Hate To Say That I Told You So Tabs (ver.1)

Artists:  A B C D E F G H I J K L M N O P Q R S T U V W X Y Z # 

Hate To Say That I Told You So Tabs (ver.1)

Hives
Rating:
1.2/5 (109 votes)

Tabs too difficult? Try these video lessons and learn fast.
                This one is

100% accurate!

Intro:

Nicholaus Arson
e-------------------------------------------------------------|
b-------------------------------------------------------------|
g--------------------10-10-10---------------------------------|
d-12-12-0-10-10-10-0-10-10-10-0-8-8-8-8-----------------------|
a-12-12-0-10-10-10-0--8--8--8-0-8-8-8-8-----------------------|
e-10-10-0--8- 8--8-0----------0-6-6-6-6-----------------------| x2

Then, immediately after the second time that's play, Vigilante joins in with

Vigilante
e----------------|
b----------------|
g-7--------------|
d-7--------------|
a-5--------------|
e----------------|

Nicholaus Arson
e-------------------------------------------------------------|
b-------------------------------------------------------------|
g--------------------10-10-10---------------------------------|
d-12-12-0-10-10-10-0-10-10-10-0-8-8-8-8-----------------------|
a-12-12-0-10-10-10-0--8--8--8-0-8-8-8-8-----------------------|
e-10-10-0--8- 8--8-0----------0-6-6-6-6-----------------------| x2
Then the drums and bass join!


(Nick & Vig)
e-------------------------------------------------------------|
b-------------------------------------------------------------|
g--------------------10-10-10---------------------------------|
d-12-12-0-10-10-10-0-10-10-10-0-8-8-8-8-----------------------|
a-12-12-0-10-10-10-0--8--8--8-0-8-8-8-8-----------------------|
e-10-10-0--8- 8--8-0----------0-6-6-6-6-----------------------| x4

Then for live concerts, I think Nick is doing this while bending the strings. Not 100% sure on this.

Nicholaus
e-----------------------------------------------------------|   It sounds
b-----------------------------------------------------------|   like it how I
g-----------------------------------------------------------|   do it on my
d-12-12-12-12-12-12-12-12-12-12-12-12-12-12-12-12-12-12-----|   guitar.
a-12-12-12-12-12-12-12-12-12-12-12-12-12-12-12-12-12-12-----|
e-----------------------------------------------------------|

Then back to the main riff.

(Vig and Nick)
e-------------------------------------------------------------|
b-------------------------------------------------------------|
g--------------------10-10-10---------------------------------|
d-12-12-0-10-10-10-0-10-10-10-0-8-8-8-8-----------------------|
a-12-12-0-10-10-10-0--8--8--8-0-8-8-8-8-----------------------|
e-10-10-0--8- 8--8-0----------0-6-6-6-6-----------------------| x8

Chorus: "Hate To Say I Told You So! Alright!"

(Nick and Vig)
e--------------------------------------------------|
b--------------------------------------------------|
g--------------------------------------------------|
d-5-5-5-5-5-5-5-5-5-5-5-5-5------------------------|
a-5-5-5-5-5-5-5-5-5-5-5-5-5------------------------|
e-3-3-3-3-3-3-3-3-3-3-3-3-3------------------------|

Back to:

(Vig and Nick)
e-------------------------------------------------------------|
b-------------------------------------------------------------|
g--------------------10-10-10---------------------------------|
d-12-12-0-10-10-10-0-10-10-10-0-8-8-8-8-----------------------|
a-12-12-0-10-10-10-0--8--8--8-0-8-8-8-8-----------------------|
e-10-10-0--8- 8--8-0----------0-6-6-6-6-----------------------| x2

 "Do believe I told you so!"
(Nick and Vig)
e--------------------------------------------------|
b--------------------------------------------------|
g--------------------------------------------------|
d-5-5-5-5-5-5-5-5-5-5-5-5-5------------------------|
a-5-5-5-5-5-5-5-5-5-5-5-5-5------------------------|
e-3-3-3-3-3-3-3-3-3-3-3-3-3------------------------|

"Now it's all out and you know!"

(Nick and Vig)
e-------------------------------------------------------------|
b-------------------------------------------------------------|
g--------------------10-10-10---------------------------------|
d-12-12-0-10-10-10-0-10-10-10-0-8-8-8-8-----------------------|
a-12-12-0-10-10-10-0--8--8--8-0-8-8-8-8-----------------------|
e-10-10-0--8- 8--8-0----------0-6-6-6-6-----------------------| x4

Then Vig and Nick keep playing the main riff, except when playing they play with the 
kinda.  Don't know if you know what I mean, but you have to listen to it on the song 
to get what I mean.  Like playing with a little more space between them.  Anyways.

They do it that way for
(Nick and Vig)
e-------------------------------------------------------------|
b-------------------------------------------------------------|
g--------------------10-10-10---------------------------------|
d-12-12-0-10-10-10-0-10-10-10-0-8-8-8-8-----------------------|
a-12-12-0-10-10-10-0--8--8--8-0-8-8-8-8-----------------------|
e-10-10-0--8- 8--8-0----------0-6-6-6-6-----------------------|

Then back to the normal way
(Nick and Vig)
e-------------------------------------------------------------|
b-------------------------------------------------------------|
g--------------------10-10-10---------------------------------|
d-12-12-0-10-10-10-0-10-10-10-0-8-8-8-8-----------------------|
a-12-12-0-10-10-10-0--8--8--8-0-8-8-8-8-----------------------|
e-10-10-0--8- 8--8-0----------0-6-6-6-6-----------------------|

Then with the drums again
(Nick and Vig)
e-------------------------------------------------------------|
b-------------------------------------------------------------|
g--------------------10-10-10---------------------------------|
d-12-12-0-10-10-10-0-10-10-10-0-8-8-8-8-----------------------|
a-12-12-0-10-10-10-0--8--8--8-0-8-8-8-8-----------------------|
e-10-10-0--8- 8--8-0----------0-6-6-6-6-----------------------|

I think they do it more that way during the live stuff though. Anyways, then the chorus!

Chorus: "Hate To Say I Told You So! Alright!"

(Nick and Vig)
e--------------------------------------------------|
b--------------------------------------------------|
g--------------------------------------------------|
d-5-5-5-5-5-5-5-5-5-5-5-5-5------------------------|
a-5-5-5-5-5-5-5-5-5-5-5-5-5------------------------|
e-3-3-3-3-3-3-3-3-3-3-3-3-3------------------------|

(Nick and Vig)
e-------------------------------------------------------------|
b-------------------------------------------------------------|
g--------------------10-10-10---------------------------------|
d-12-12-0-10-10-10-0-10-10-10-0-8-8-8-8-----------------------|
a-12-12-0-10-10-10-0--8--8--8-0-8-8-8-8-----------------------|
e-10-10-0--8- 8--8-0----------0-6-6-6-6-----------------------| x2

"Do Believe I Told you sooooooooooooooooooo!!!!!"

(Vig and Nick)
e--------------------------------------------------|
b--------------------------------------------------|
g--------------------------------------------------|
d-5-5-5-5-5-5-5-5-5-5-5-5-5------------------------|
a-5-5-5-5-5-5-5-5-5-5-5-5-5------------------------|
e-3-3-3-3-3-3-3-3-3-3-3-3-3------------------------|

Bass

Dr. Matt Destruction
g--------------------------------|
d--------------------------------|
a----------------8-8-8-----------|
e-10-10-0-8-8-8-0-----0-6-6-6-6--| x8

"Aaaaaaaaaaaaaaaaaahhhhhhhhhhhhhhhhh!!!!!!!!"

(Nick and Vig)
e----------------|
b----------------|
g-7-7-7-7-7------|
d-7-7-7-7-7------|
a-5-5-5-5-5------|
e----------------|

Nick
e-------------------------------------------------------------|
b-------------------------------------------------------------|
g--------------------10-10-10---------------------------------|
d-12-12-0-10-10-10-0-10-10-10-0-8-8-8-8-----------------------|
a-12-12-0-10-10-10-0--8--8--8-0-8-8-8-8-----------------------|
e-10-10-0--8- 8--8-0----------0-6-6-6-6-----------------------|


(Nick & Vig)
e-------------------------------------------------------------|
b-------------------------------------------------------------|
g--------------------10-10-10---------------------------------|
d-12-12-0-10-10-10-0-10-10-10-0-8-8-8-8-----------------------|
a-12-12-0-10-10-10-0--8--8--8-0-8-8-8-8-----------------------|
e-10-10-0--8- 8--8-0----------0-6-6-6-6-----------------------| x4

Vigilante Carlstroem
e-22-22-22-22-22-22-22-22-22-22-22--| Switch between the two or play both at
b-22-22-22-22-22-22-22-22-22-22-22--| same time
g-----------------------------------|
d-----------------------------------|
a-----------------------------------| For rest of song.
e-----------------------------------|

Nick keeps playing

Nicholaus
e-------------------------------------------------------------| For rest of
b-------------------------------------------------------------| song.
g--------------------10-10-10---------------------------------|
d-12-12-0-10-10-10-0-10-10-10-0-8-8-8-8-----------------------|
a-12-12-0-10-10-10-0--8--8--8-0-8-8-8-8-----------------------|
e-10-10-0--8- 8--8-0----------0-6-6-6-6-----------------------|

Oh, and for the end for the very end for Vigilante is

Vigilante
e-22-22-22-22-22-|
b----------------| slowly
g----------------| Not being exact amount of times but you get the idea.
d----------------|
a----------------|
e----------------|


There ya go. :)
            
Tabs too difficult? Try these video lessons and learn fast.




comments powered by Disqus
↑ Back to top | Tablatures and chords are parodies/interpretations of the original songs. You may use it for private study, scholarship, research or language learning purposes only