» » »

You Are The One Bass tabs (ver.1)

Artists:  A B C D E F G H I J K L M N O P Q R S T U V W X Y Z # 

You Are The One Bass tabs (ver.1)

H.I.M
Rating:
0/5 (0 votes)

Tabs too difficult? Try these video lessons and learn fast.
                This is a pretty good song. It's on the album Deep Shadows and Brilliant Highlights, put
in 2001. I'm a little sketchy about the chorus, but that's the best I can pick up. It's
when you play it with a band. I play it with my band all the time. Enjoy!


(wait 7 seconds for guitar intro)

Intro (play after guitar)
G|------------------------------------------------------------|
D|-----0-2p0-----------------0-2p0-----------------0-2p0------|
A|--0h2-----2-------------0h2-----2-------------0h2-----2-----|
D|------------2-2--2-0--0-----------5-5--9-7--7---------------|

Verse part 1 (x2)
G|------------------------------------------------------------|
D|------------------------------------------------------------|
A|------------------------------------------------------------|
D|--2-2--2-0--0-----5-5--9-7--7-------------------------------|

Verse part 2
G|------------------------------------------------------------|
D|-----0-2p0-----------------0-2p0-----------------0-2p0------|
A|--0h2-----2-------------0h2-----2-------------0h2-----2-----|
D|------------2-2--2-0--0-----------5-5--9-7--7---------------|

G|------------------------------------------------------------|
D|-----------------0-2p0-----------------0-2p0----------------|
A|--------------0h2-----2-------------0h2-----2---------------|
D|--2-2--2-0--0-----------5-5--9-7--7-------------------------|

Chorus part 1 (x3)
G|------------------------------------------------------------|
D|---------------------------------0-2p0----------------------|
A|---------5--5-----------------0h2-----2---------------------|
D|--2-2--2----------2-2--2-0--0-------------------------------|

Chorus part 2
G|------------------------------------------------------------|
D|------------------------------------------------------------|
A|---------5--5-----------------------------------------------|
D|--2-2--2------0-0-------------------------------------------|

Post-chorus
G|------------------------------------------------------------|
D|-----------------0-2p0-----------------0-2p0----------------|
A|--------------0h2-----2-------------0h2-----2---------------|
D|--2-2--2-0--0-----------5-5--9-7--7-------------------------|

Verse part 1 (x2)
Verse part 2
Chorus part 1 (x3)
Chorus part 2
Verse part 1 (x2(play this during the guitar solo))
Chorus part 1 (x3)
Chorus part 2

End
G|----------|
D|----------|
A|----------|
D|--2~------|

(let ring during guitar outro)

Legend:
h = hammer on
p = pull off
~ = let ring
            
Tabs too difficult? Try these video lessons and learn fast.




comments powered by Disqus
↑ Back to top | Tablatures and chords are parodies/interpretations of the original songs. You may use it for private study, scholarship, research or language learning purposes only