» » »

H.I.M, You Are The One Tabs (ver.1)

Artists:  A B C D E F G H I J K L M N O P Q R S T U V W X Y Z # 

You Are The One Tabs (ver.1)

H.I.M Tabs
 Rating:
4/5 (4 votes)
You Are The One lessons Tabs too difficult? Try these video lessons and learn fast
                HIM- You Are the One (Deep Shadows Brilliant Highlights)


Tuning DADGBE   

play this first with no distortion, then with distortion.  sometimes there is only the chords without the fiddley bit ;)  this is the riff that runs throughout

E------------------------------------------------------------
B------------------------------------------------------------
G---------------9--9---9--7--7-------------------------------
D------0-2-0----9--9---9--7--7------0-2-0----5--5---9--7--7--
A--0-2-------2--7--7---7--5--5--0-2-------2--5--5---9--7--7--
D--------------------------------------------3--3---7--5--5--


Chorus (not 100% sure about this, havent shown exact number of chords srummed, listen to track to figure it)

E------------------------------------------
B------------------------------------------
G--9--9---9--2--2---2----------------------
D--9--9---9--2--2---2--2--2---2--4--4------
A--7--7---7--0--0---0--2--2---2--4--4------
D----------------------0--0---0--2--2------

solo

E----------------------------------------------------
B-----------------------------------------8--7-------
G--9--7--9----9--7--9----9--7--9----7--9-------9--7--
D----------------------------------------------------
A----------------------------------------------------
D----------------------------------------------------


E---------------------------------------------------------------
B---------------------------------------------------------------
G--9--7--9----9--7--9----9--7--9---7--9--------7--9--12--9--7--9
D---------------------------------------7--9--------------------
A---------------------------------------------------------------
D---------------------------------------------------------------
            
Submit corrections

comments powered by Disqus
↑ Back to top | H.I.M Tabs for You Are The One. Lyrics for acoustic guitar and electric guitar. Tablatures and chords are parodies/interpretations of the original songs. You may use it for private study, scholarship, research or language learning purposes only