>
 >
Vampire Heart

Vampire Heart Guitar Tabs

H.I.M - Vampire Heart chords, tabs, tablatures, lyrics

Guitar lessons | Add/correct | Request | Top 50 tabs Artists:  A B C D E F G H I J K L M N O P Q R S T U V W X Y Z 0-9

Vampire Heart Guitar Tabs – H.I.M

CD, Sheet music, Poster

Do you like Vampire Heart? Share with your friends now
Bass TabsChordsChords v2TabsTabs v2Tabs v3Tabs v4Tabs v5Tabs v6UkuleleUkulele v2
HIM


Standard Tuning

(Main Riff arranged for guitar)

E|-7--------7--------7-----8--------------5-----|
B|----5--5-----5--5-----5-----5--5--8--8-----5--|
G|----------------------------------------------|
D|----------------------------------------------|
A|----------------------------------------------|
E|----------------------------------------------|

(Guitars I and II during both verses under the main riff)
E|---------------------------------------|
B|---------------------------------------|
G|---------------------------------------|
D|-5---5---5--5--5-----------------------|
A|-5---5---5--5--5--5---5--5--2---2--2~~~|
E|-3---3---3--3--3--5---5--5--2---2--2~~~|


E|-----------------------------------------|
B|-----------------------------------------|
G|-----------------------------------------|
D|-0h2--2--2---2--2--2--2------------------|
A|-0h2--2--2---2--2--2--2--3--3--3---3--3--|
E|-0----0--0---0--0--0--0--3--3--3---3--3--|


E|-----------------------------------------|
B|-----------------------------------------|
G|-----------------------------------------|
D|-0h2--2--2---2--2--2--2------------------|
A|-0h2--2--2---2--2--2--2--3--3--3---3--3--|
E|-0----0--0---0--0--0--0--3--3--3---3--3--|

E|---------------------------------------|
B|---------------------------------------|
G|---------------------------------------|
D|-5---5---5--5--5-----------------------|
A|-5---5---5--5--5--5---5--5--2---2--2~~~|
E|-3---3---3--3--3--5---5--5--2---2--2~~~|

(Pre-chorus) (Guitar I) (Palm muted except for half of the last bar)

E|-------------------------------------------------|
B|-------------------------------------------------|
G|-5--5--5--5--5--5--5--5--5--5--5--5--5--5--5--5--|
D|-5--5--5--5--5--5--5--5--5--5--5--5--5--5--5--5--|
A|-3--3--3--3--3--3--3--3--3--3--3--3--3--3--3--3--|
E|-------------------------------------------------|


E|-------------------------------------------------|
B|-------------------------------------------------|
G|-------------------------7--7--7--7--7--7--7--7--|
D|-5--5--5--5--5--5--5--5--7--7--7--7--7--7--7--7--|
A|-5--5--5--5--5--5--5--5--5--5--5--5--5--5--5--5--|
E|-3--3--3--3--3--3--3--3--------------------------|

E|-------------------------------------------------|
B|-------------------------------------------------|
G|-5--5--5--5--5--5--5--5--5--5--5--5--5--5--5--5--|
D|-5--5--5--5--5--5--5--5--5--5--5--5--5--5--5--5--|
A|-3--3--3--3--3--3--3--3--3--3--3--3--3--3--3--3--|
E|-------------------------------------------------|

E|-------------------------------------------------|
B|-------------------------------------------------|
G|-------------------------7--7--7--7--7--7--7--7--|
D|-5--5--5--5--5--5--5--5--7--7--7--7--7--7--7--7--|
A|-5--5--5--5--5--5--5--5--5--5--5--5--5--5--5--5--|
E|-3--3--3--3--3--3--3--3--------------------------|

E|-------------------------------------------------|
B|-------------------------------------------------|
G|-5--5--5--5--5--5--5--5--5--5--5--5--5--5--5--5--|
D|-5--5--5--5--5--5--5--5--5--5--5--5--5--5--5--5--|
A|-3--3--3--3--3--3--3--3--3--3--3--3--3--3--3--3--|
E|-------------------------------------------------|

E|-------------------------------------------------|
B|-------------------------------------------------|
G|-------------------------------------------------|
D|-2--2--2--2--2--2--2--2--4--4--4--4--4--4--4--4--|
A|-2--2--2--2--2--2--2--2--4--4--4--4--4--4--4--4--|
E|-0--0--0--0--0--0--0--0--2--2--2--2--2--2--2--2--|

E|----------------------------------------------|
B|----------------------------------------------|
G|------------------------------------------4~~~|
D|-5---5--5--5--5--5--5--5--5--5--5--5--5-------|
A|-5---5--5--5--5--5--5--5--5--5--5--5--5---2~~~|
E|-3---3--3--3--3--3--3--3--3--3--3--3--3-------|

(Pre-chorus) (Guitar II) (Clean except for the last bar)

E|-7--------7--------7------5--------5--------5-------|
B|----5--5-----5--5-----5------3--3-----3--3-----3----|
G|----------------------------------------------------|
D|----------------------------------------------------|
A|----------------------------------------------------|
E|----------------------------------------------------|


E|-7--------7--------7------5--------5--------5-------|
B|----5--5-----5--5-----5------3--3-----3--3-----3----|
G|----------------------------------------------------|
D|----------------------------------------------------|
A|----------------------------------------------------|
E|----------------------------------------------------|


E|-7--------7--------7------5--------5--------5-------|
B|----5--5-----5--5-----5------3--3-----3--3-----3----|
G|----------------------------------------------------|
D|----------------------------------------------------|
A|----------------------------------------------------|
E|----------------------------------------------------|


E|-7--------7--------7------5--------5--------5-------|
B|----5--5-----5--5-----5------3--3-----3--3-----3----|
G|----------------------------------------------------|
D|----------------------------------------------------|
A|----------------------------------------------------|
E|----------------------------------------------------|


E|-7--------7--------7------5--------5--------5-------|
B|----5--5-----5--5-----5------3--3-----3--3-----3----|
G|----------------------------------------------------|
D|----------------------------------------------------|
A|----------------------------------------------------|
E|----------------------------------------------------|


E|-7--------7--------7------5--------5--------5-------|
B|----5--5-----5--5-----5------3--3-----3--3-----3----|
G|----------------------------------------------------|
D|----------------------------------------------------|
A|----------------------------------------------------|
E|----------------------------------------------------|

E|----------------------------------------------|
B|----------------------------------------------|
G|------------------------------------------4~~~|
D|-5---5--5--5--5--5--5--5--5--5--5--5--5-------|
A|-5---5--5--5--5--5--5--5--5--5--5--5--5---2~~~|
E|-3---3--3--3--3--3--3--3--3--3--3--3--3-------|

(Chorus) (Guitar I)

E|---------------------------------------------------------------|
B|---------------------------------------------------------------|
G|-------------------5---------------------5---------------------|
D|-2-----2-----2-----5-------5-------5-----5-------5-------5-----|
A|-2-----2-----2-----3-------5-------5-----3-------5-------5-----|
E|-0-----0-----0-------------3-------3-------------3-------3-----|

E|-------------------------------------------------|
B|-------------------------------------------------|
G|-------------------------------------------------|
D|-0--7--4--0--5--4--0--7--4--0--5--4--0--7--4--0--|
A|-------------------------------------------------|
E|-------------------------------------------------|

E|---------------------------------------------------------------|
B|---------------------------------------------------------------|
G|-------------------5---------------------5---------------------|
D|-2-----2-----2-----5-------5-------5-----5-------5-------5-----|
A|-2-----2-----2-----3-------5-------5-----3-------5-------5-----|
E|-0-----0-----0-------------3-------3-------------3-------3-----|

E|-------------------------------------------------|
B|-------------------------------------------------|
G|-------------------------------------------------|
D|-0--7--4--0--5--4--0--7--4--0--5--4--0--7--4--0--|
A|-------------------------------------------------|
E|-------------------------------------------------|

(Chorus) (Guitar II)

E|-3-----2----------3-----2---------3-----2-----------3----2-----|
B|-------------0----------------3---------------0--------------3-|
G|---------------------------------------------------------------|
D|---------------------------------------------------------------|
A|---------------------------------------------------------------|
E|---------------------------------------------------------------|

E|-3-----2----------3-----2---------3-----2-----------3----2-----|
B|-------------0----------------3---------------0--------------3-|
G|---------------------------------------------------------------|
D|---------------------------------------------------------------|
A|---------------------------------------------------------------|
E|---------------------------------------------------------------|


E|-------------------------------------------------|
B|-------------------------------------------------|
G|-------------------------------------------------|
D|-0--7--4--0--5--4--0--7--4--0--5--4--0--7--4--0--|
A|-------------------------------------------------|
E|-------------------------------------------------|


E|-3-----2----------3-----2---------3-----2-----------3----2-----|
B|-------------0----------------3---------------0--------------3-|
G|---------------------------------------------------------------|
D|---------------------------------------------------------------|
A|---------------------------------------------------------------|
E|---------------------------------------------------------------|

E|-3-----2----------3-----2---------3-----2-----------3----2-----|
B|-------------0----------------3---------------0--------------3-|
G|---------------------------------------------------------------|
D|---------------------------------------------------------------|
A|---------------------------------------------------------------|
E|---------------------------------------------------------------|


E|-------------------------------------------------|
B|-------------------------------------------------|
G|-------------------------------------------------|
D|-0--7--4--0--5--4--0--7--4--0--5--4--0--7--4--0--|
A|-------------------------------------------------|
E|-------------------------------------------------|


(Bridge) (Guitars I & II)

E|---------------------------------------------|
B|---------------------------------------------|
G|---------------------------------------------|
D|-2-------------------------X\\\\\X\\\\\X\\\\\|
A|-2-------------------------X\\\\\X\\\\\X\\\\\|
E|-0-------------------------X\\\\\X\\\\\X\\\\\|

Play everything again up to this point again, except for the bridge, and play as follows…

(Guitar I) (With a harmonizer) (Semi-harmonic the notes in parentheses)

(Play 4 times) (Palm mute all but the semi-harmonic notes)

E|-----------------------------------------------|
B|---------------------------------------(10)~~~~|
G|---------------------------------------(2)~~~~~|
D|-----------------------------------------------|
A|----5--2-----3--2-----5--2-----3--2------------|
E|-0--------3--------0--------3--------0---------|

(Guitar II) (Play 4 times) (Palm mute all notes)

E|-----------------------------------------------|
B|-----------------------------------------------|
G|-----------------------------------------------|
D|-----------------------------------------------|
A|----5--2-----3--2-----5--2-----3--2-----0------|
E|-0--------3--------0--------3--------0---------|

(Guitar I) (Semi-harmonic the notes in parentheses)

E|---------------------------------------------------------|
B|------------------------------------------------(10)~~~~~|
G|-----7---4-------5---4-------7---4-------5---4-----------|
D|-----7---4-------5---4-------7---4-------5---4-----------|
A|-----5---2-------3---2-------5---2-------3---2-----------|
E|-0-----------3-----------0-----------3-------------------|


E|---------------------------------------------------------|
B|------------------------------------------------(10)~~~~~|
G|-----7---4-------5---4-------7---4-------5---4-----------|
D|-----7---4-------5---4-------7---4-------5---4-----------|
A|-----5---2-------3---2-------5---2-------3---2-----------|
E|-0-----------3-----------0-----------3-------------------|


E|---------------------------------------------------------|
B|------------------------------------------------(10)~~~~~|
G|----7----4-------5---4-------7---4-------5---4-----------|
D|----7----4-------5---4-------7---4-------5---4-----------|
A|----5----2-------3---2-------5---2-------3---2-----------|
E|-0-----------3-----------0-----------3-------------------|


E|-------------------------------------------------------------------------|
B|------------------------------------------------(10)~~~~~(10)~~~~~(10)~~~|
G|-----7---4-------5---4-------7---4-------5---4---------------------------|
D|-----7---4-------5---4-------7---4-------5---4---------------------------|
A|-----5---2-------3---2-------5---2-------3---2---------------------------|
E|-0-----------3-----------0-----------3-----------------------------------|

E|-----------------|
B|-----------------|
G|-----------------|
D|-X\\\\\----------|
A|-X\\\\\----------|
E|-X\\\\\----------|

(Guitar II) 

E|-----------------------------------------------------------|
B|-----------------------------------------------------------|
G|-----7---4-------5---4-------7---4-------5---4-------2-----|
D|-----7---4-------5---4-------7---4-------5---4-------2-----|
A|-----5---2-------3---2-------5---2-------3---2-------0-----|
E|-0-----------3-----------0-----------3-----------0---------|


E|-----------------------------------------------------------|
B|-----------------------------------------------------------|
G|-----7---4-------5---4-------7---4-------5---4-------2-----|
D|-----7---4-------5---4-------7---4-------5---4-------2-----|
A|-----5---2-------3---2-------5---2-------3---2-------0-----|
E|-0-----------3-----------0-----------3-----------0---------|

E|-----------------------------------------------------------|
B|-----------------------------------------------------------|
G|-----7---4-------5---4-------7---4-------5---4-------2-----|
D|-----7---4-------5---4-------7---4-------5---4-------2-----|
A|-----5---2-------3---2-------5---2-------3---2-------0-----|
E|-0-----------3-----------0-----------3-----------0---------|

E|-----------------------------------------------------------------------|
B|-----------------------------------------------------------------------|
G|-----7---4-------5---4-------7---4-------5---4-------2\\\\\2\\\\\2\\\\\|
D|-----7---4-------5---4-------7---4-------5---4-------2\\\\\2\\\\\2\\\\\|
A|-----5---2-------3---2-------5---2-------3---2-------0-----0-----0-----|
E|-0-----------3-----------0-----------3-----------0---------------------|



Play the chorus one more time, and then play as follows…



(Final Chorus) (Guitar I)

E|-------------------1---------------------1---------------------|
B|-------------------3---------------------3---------------------|
G|-------------------2-------2-------2-----2-------2-------2-----|
D|-4-----4-----4-----0-------2-------2-----0-------2-------2-----|
A|-4-----4-----4-------------0-------0-------------0-------0-----|
E|-2-----2-----2-------------------------------------------------|

E|-------------------------------------------------|
B|-------------------------------------------------|
G|----4--1-----2--1-----4--1-----2--1-----4--1-----|
D|-2--------2--------2--------2--------2--------2--|
A|-------------------------------------------------|
E|-------------------------------------------------|


E|-------------------1---------------------1---------------------|
B|-------------------3---------------------3---------------------|
G|-------------------2-------2-------2-----2-------2-------2-----|
D|-4-----4-----4-----0-------2-------2-----0-------2-------2-----|
A|-4-----4-----4-------------0-------0-------------0-------0-----|
E|-2-----2-----2-------------------------------------------------|

E|-------------------------------------------------|
B|-------------------------------------------------|
G|----4--1-----2--1-----4--1-----2--1-----4--1-----|
D|-2--------2--------2--------2--------2--------2--|
A|-------------------------------------------------|
E|-------------------------------------------------|

(Final Chorus) (Guitar II) 

E|-5-----4----------5-----4---------5-----4-----------5----4-----|
B|-------------2----------------5---------------2--------------5-|
G|---------------------------------------------------------------|
D|---------------------------------------------------------------|
A|---------------------------------------------------------------|
E|---------------------------------------------------------------|

E|-5-----4----------5-----4---------5-----4-----------5----4-----|
B|-------------2----------------5---------------2--------------5-|
G|---------------------------------------------------------------|
D|---------------------------------------------------------------|
A|---------------------------------------------------------------|
E|---------------------------------------------------------------|


E|-------------------------------------------------|
B|-------------------------------------------------|
G|----4--1-----2--1-----4--1-----2--1-----4--1-----|
D|-2--------2--------2--------2--------2--------2--|
A|-------------------------------------------------|
E|-------------------------------------------------|

E|-5-----4----------5-----4---------5-----4-----------5----4-----|
B|-------------2----------------5---------------2--------------5-|
G|---------------------------------------------------------------|
D|---------------------------------------------------------------|
A|---------------------------------------------------------------|
E|---------------------------------------------------------------|

E|-5-----4----------5-----4---------5-----4-----------5----4-----|
B|-------------2----------------5---------------2--------------5-|
G|---------------------------------------------------------------|
D|---------------------------------------------------------------|
A|---------------------------------------------------------------|
E|---------------------------------------------------------------|


E|-------------------------------------------------|
B|-------------------------------------------------|
G|----4--1-----2--1-----4--1-----2--1-----4--1-----|
D|-2--------2--------2--------2--------2--------2--|
A|-------------------------------------------------|
E|-------------------------------------------------|

(Outro) (Both Guitars) (All palm muted) 

E|-----------------------------|
B|-----------------------------|
G|-----2-----------------------|
D|-----2---4-------5---4-------|
A|-----0---4-------5---4-------|
E|-0-------2---0---3---2---0---|

Play that however some many times it is played, but the last bar this is played…

E|-------------------------------------------------------|
B|-------------------------------------------------------|
G|-----2-----------------------2-------------------------|
D|-----2---4-------5---4-------2---4-----5---4---2---4---|
A|-----0---4-------5---4-------0---4-----5---4---2---4---|
E|-0-------2---0---3---2---0-------2-----3---2---0---2---|


Thanks

________66666________66666________
______6______66____6_______6______
_____6_________6__6_________6_____
_____6__________66__________6_____
______6_______6____6_______6______
_______6____6________6____6_______
________6_6____________6_6________
________66__H.I.M=LOVE__66________
______6___6____________6___6______
____6______6__________6______6____
___6666666666666666666666666666___
_____________6______6_____________
______________6____6______________
_______________6__6_______________
________________66________________
________________.6._______________





Comments


Popular H.I.M tabs & chords
Gone With The Sin 2 Bass Tabs
Sigillum Diaboli 1 Bass Tabs
When Love And Death Embrace Bass Tabs
Fortess Of Tears Chords
Close To The Flame Tabs
In Joy And Sorrow 1 Tabs
Song Or Suicide 1 Tabs
The Sacrament 3 Tabs
Wicked Game 4 Tabs
Heartless Ukulele


Song lyrics



↑ Back to top | Tablatures and chords are parodies/interpretations of the original songs. You may use it for private study, scholarship, research or language learning purposes only
© 2014 AZChords.com Contact us | Privacy policy | DMCA | Add/correct tabs | Request tabs | Top 50 tabs