>
 >
Shatter Me With Hope

Shatter Me With Hope Guitar Tabs

H.I.M - Shatter Me With Hope chords, tabs, tablatures, lyrics

Guitar lessons | Add/correct | Request | Top 50 tabs Artists:  A B C D E F G H I J K L M N O P Q R S T U V W X Y Z 0-9

Shatter Me With Hope Guitar Tabs – H.I.M

CD, Sheet music, Poster

Do you like Shatter Me With Hope? Share with your friends now
TabsTabs v2
Shatter Me with Hope
Words and Music by HIM

Tuning: Drop D

Everything except for the solo. I'm going to be working on it
I just wanted to get the rest of it up. 

Intro
e|--------------------------------------------------|
B|--------------------------------------------------|
G|--------------------------------------------------|
D|--------------------------------------------------|
A|-----0--------0-------------0--------0-2-4--------|
D|-2-4---4--2-4---4-2-4---2-4---4--2-4--------------|

e|--------------------------------------------------|
B|--------------------------------------------------|
G|--------------------------------------------------|
D|--------------------------------------------------|
A|-----0--------0-------------0----------------0~---|
D|-2-4---4--2-4---4-2-4---2-4---4--2-4--7-6-2--0~---|

Verse 1
e|---------------------------9----------------------|
B|----------------------------10--------------------|
G|-------------------------------9------------------|
D|--------------------------------------------------|
A|-----0--------0--------0~-------------------------|
D|-2-4---4--2-4---4-2-4--0~-------------------------|

e|--------------------------------------------------|
B|--------------------------------------------------|
G|--------------------------------------------------|
D|--------------------------------------------------|
A|-----0--------0-------------0--------------0------|
D|-2-4---4--2-4---4-2-4---2-4---4-----7-6-2--0------|

e||------------------------------------------||
B||------------------------------------------||
G||--99999999--66666666-77777777-------------||
D||-------------------------------7\---------||
A||--77777777--44444444-55555555--5\---------||
D||------------------------------------------||

Chorus
e|--------------------------------------------------|
B|--------------------------------------------------|
G|--------------------------------------------------|
D|----------------------------7777777-66-2----------|
A|-2-2-4444444-22-4444444-22--5555555-44-0-00-2-00-2|
D|-2-2-4444444-22-4444444-22---------------00-0-00-0|
                                        pm ..   ..
e|----------------|
B|----------------|
G|----------------|
D|----------------|
A|-777777-7-6-4-2-|
D|-777777-7-6-4-2-|

e||------------------------------------------------||
B||O----------------------------------------------O||
G||-------------9--------------9-------------------||
D||---------------11-------------11----------------||
A||O--12-11-9---------12-11-9-------12-11-9-7-----O||
D||------------------------------------------------||

e|--------------------------------------------------|
B|--------------------------------------------------|
G|--------------------------------------------------|
D|--------------------------------------------------|
A|-00-2-00-2---777777-7-6-4-2-----------------------|
D|-00-0-00-0---777777-7-6-4-2-----------------------|
 pm..   ..

  Intro plays behind this
e|--------------------------------------------------|
B|--------------------------------------------------|
G|-----2-------2-----------2-------2-4-6------------|
D|-2h4---4-2h4---4-2-4-2h4---4-2h4------------------|
A|--------------------------------------------------|
D|--------------------------------------------------|

e|------5-------5---5h7p5-------5-------5---5-4-----|
B|--5h7---7-5h7---7-------7-5h7---7-5h7---7-----5-3-|
G|--------------------------------------------------|
D|--------------------------------------------------|
A|--------------------------------------------------|
D|--------------------------------------------------|

Verse 2
e|-9----------------------------|
B|---10-------------------------|
G|------9-----------------------|
D|------------------------------|
A|-------------0--------0-------|
D|---------2-4---4--2-4---4-2-4-|

e||----------------------------||
B||O--------------------------O||
G||----xx-7777-xx-7777---9p7---||
D||----xx------xx--------------||
A||O---xx-5555-xx-5555--------O||
D||----------------------------||

e|--------------------------------------------------|
B|--------------------------------------------------|
G|--------------------------------------------------|
D|--------------------------------------------------|
A|-----0--------0-------------0--------------0------|
D|-2-4---4--2-4---4-2-4---2-4---4-----7-6-2--0------|

e||------------------------------------------||
B||------------------------------------------||
G||--99999999--66666666-77777777-------------||
D||-------------------------------7\---------||
A||--77777777--44444444-55555555--5\---------||
D||------------------------------------------||


Chorus

[Synth Part]

Guitar comes back in:
e|--------------------------------|
B|--------------------------------|
G|--------------------------------|
D|--------------------------------|
A|-4-4-4-5-5-5-00000000-22222222--|
D|-4-4-4-5-5-5-00000000-22222222--|

Solo: I'll be working on this part
e|---------------------------------------------------------------------------|
B|---------------------------------------------------------------------------|
G|---------------------------------------------------------------------------|
D|---------------------------------------------------------------------------|
A|---------------------------------------------------------------------------|
D|---------------------------------------------------------------------------|

This plays behind the solo. Pretty hard to hear but I'm pretty sure its right.
e||---------------------------------------||
B||O-------------------------------------O||
G||---------------------------------------||
D||---------------------------------------||
A||O--0-----------0-----------0----------O||
D||-----6-4-2-0-2---6-4-2-0-2---6-4-2-0---|| x3


Wise like Solomon/Page 43:          End 1   End 2
e||-------------------------------||-------|------|
B||O-----------------------------O||-------|------|
G||--99999999--66666666-77777777--||-------|------|
D||-------------------------------||-------|------|
A||O-77777777--44444444-55555555-O||-------|--7\--|
D||-------------------------------||-7-6-2-|--7\--|

Chorus

Outro
e||------------------------------------------||
B||O----------------------------------------O||
G||------------------------------------------||
D||------------------------------------------||
A||O--44444444-00000000-77777777-66666666---O||
D||---44444444-00000000-77777777-66666666----|| x4

e|-----------------------|
B|-----------------------|
G|-----------------------|
D|-----------------------|
A|-----0--------0--------|
D|-2-4---4--2-4---4-2-4--|





Comments


Popular H.I.M tabs & chords
Beyond Redemption 1 Bass Tabs
Pretending Bass Tabs
The Foreboding Sense Of Impending Happiness Chords
Venus Doom 1 Chords
Dead Lovers Lane 1 Tabs
Don't Close Your Heart Tabs
In Joy And Sorrow Intro 1 Tabs
Song Or Suicide Intro Tabs
Dont Close Your Heart Ukulele
The Love That Died Ukulele


Song lyrics



↑ Back to top | Tablatures and chords are parodies/interpretations of the original songs. You may use it for private study, scholarship, research or language learning purposes only
© 2014 AZChords.com Contact us | Privacy policy | DMCA | Add/correct tabs | Request tabs | Top 50 tabs