>
 >
Razorblade Kiss 2

Razorblade Kiss 2 Guitar Tabs

H.I.M - Razorblade Kiss 2 chords, tabs, tablatures, lyrics

Guitar lessons | Add/correct | Request | Top 50 tabs Artists:  A B C D E F G H I J K L M N O P Q R S T U V W X Y Z 0-9

Razorblade Kiss 2 Guitar Tabs – H.I.M

CD, Sheet music, Poster

Do you like Razorblade Kiss 2? Share with your friends now
Bass TabsBass Tabs v2Bass Tabs v3ChordsTabsTabs v2Tabs v3Tabs v4Tabs v5Tabs v6Tabs v7Ukulele
	  \   ->  Slide down
	  b   ->  Bend
	  r   ->  Release
	  p   ->  Push
	  h   ->  Hammer on
	  ~   ->  Vibrato
	|---| ->  Muted	

                              
                            4x   KEY                         
E||--------------------------||--------------------------|
B||--------------------------||--------------------------|
G||*------------------------*||*-------------------------|
D||*------------------------*||*-------------------------|
A||---0~---2--2b-0~-2--2b----||--------------------------|
E||--------------------------||---7----9--9--7--9--9--9--|


                                                        
|------------------------|------------------------------|
|------------------------|------------------------------|
|------------------------|------------------------------|
|------------------------|------------------------------|
|------------------------|--9----11--11--9--11--11--11--|
|--7----9--9--7--9--9----|------------------------------|

					    Verse1
                                  KEY RITM         8x
|-----------------------------||--------------------||
|-----------------------------||--------------------||
|----------------------------*||*------------------*||
|----------------------------*||*------------------*||
|--9----11--11--9--11--11-----||--------------------||
|-----------------------------||--------------------||


  B5   C#5   
|---------------------------|---------------------------|
|---------------------------|---------------------------|
|---------------------------|---------------------------|
|---------------------------|---------------------------|
|--9----11--11------11--11--|--9----11--11------11--11--|
|--7----9---9-------9---9---|--7----9---9-------9---9---|


  E5                                                 
|----------------------------|-----------------------|
|----------------------------|-----------------------|
|----------------------------|-----------------------|
|----------------------------|-----------------------|
|--14----14--14------14--14--|--9----9--9------9--9--|
|--12----12--12------12--12--|--7----7--7------7--7--|


  B5   C#5                                                                     
|-----------------------|-----------------------|-----------------|
|-----------------------|-----------------------|-----------------|
|-----------------------|-----------------------|-----------------|
|-----------------------|-----------------------|-----------------|
|--9----11--11--11--11--|--9----11--11--11--11--|--14----19\------|
|--7----9---9---9---9---|--7----9---9---9---9---|--12----19\------|


                 KEY                                                            
|------------||--------------------------|------------------------|
|------------||--------------------------|------------------------|
|------------||*-------------------------|------------------------|
|------------||*-------------------------|------------------------|
|--9---15\---||--------------------------|------------------------|
|--7---15\---||---7----9--9--7--9--9--9--|--7----9--9--7--9--9----|


                                                              
|------------------------------|-----------------------------||
|------------------------------|-----------------------------||
|------------------------------|----------------------------*||
|------------------------------|----------------------------*||
|--9----11--11--9--11--11--11--|--9----11--11--9--11--11-----||
|------------------------------|-----------------------------||


   Verse2
   KEY RITM
|---------------------------|--------------------------|
|---------------------------|--------------------------|
|*--------------------------|--------------------------|
|*--6--6--6--6--6--6--6--6--|--6--6--6--6--6--6--6--6--|
|---4--4--4--4--4--4--4--4--|--4--4--4--4--4--4--4--4--|
|---------------------------|--------------------------|
  |--------------------------------------------------|
 
                                                       
|--------------------------|---------------------------||
|--------------------------|---------------------------||
|--------------------------|--------------------------*||
|--9--9--9--9--9--9--9--9--|--------------------------*||
|--7--7--7--7--7--7--7--7--|--9--9--9--9--9--9--9--9---||
|--------------------------|--7--7--7--7--7--7--7--7---||
  |--------------------------------------------------|
                            
     B5   C#5                                              
|---------------------------|---------------------------|
|---------------------------|---------------------------|
|---------------------------|---------------------------|
|---------------------------|---------------------------|
|--9----11--11------11--11--|--9----11--11------11--11--|
|--7----9---9-------9---9---|--7----9---9-------9---9---|


  E5                                                 
|----------------------------|-----------------------|
|----------------------------|-----------------------|
|----------------------------|-----------------------|
|----------------------------|-----------------------|
|--14----14--14------14--14--|--9----9--9------9--9--|
|--12----12--12------12--12--|--7----7--7------7--7--|


  B5   C#5                                              
|---------------------------|---------------------------|
|---------------------------|---------------------------|
|---------------------------|---------------------------|
|---------------------------|---------------------------|
|--9----11--11------11--11--|--9----11--11------11--11--|
|--7----9---9-------9---9---|--7----9---9-------9---9---|


                                                        
|------------------------------|------------------------|
|------------------------------|------------------------|
|------------------------------|------------------------|
|------------------------------|------------------------|
|--14------14--14--14--14--14--|--9------9--9--9--9--9--|
|--12------12--12--12--12--12--|--7------7--7--7--7--7--|

 						   Chorus
                                       KEY                                     
|--------------------|-------19\---||--------------------------|
|--------------------|-------19\---||--------------------------|
|--------------------|-------19\---||*-------------------------|
|--------------------|-------19\---||*-------------------------|
|--7--7--7--7--7--7--|--9----19\---||--------------------------|
|--5--5--5--5--5--5--|--7----19\---||---7----9--9--7--9--9--9--|

                                                        
|------------------------|------------------------------|
|------------------------|------------------------------|
|------------------------|------------------------------|
|------------------------|------------------------------|
|------------------------|--9----11--11--9--11--11--11--|
|--7----9--9--7--9--9----|------------------------------|

                             4x                           
|-----------------------------||--------------------------|
|-----------------------------||--------------------------|
|----------------------------*||*--6----6--6--6--8--8--8--|
|----------------------------*||*-------------------------|
|--9----11--11--9--11--11-----||--------------------------|
|-----------------------------||--------------------------|

                                                          
|-----------------------------||--------------------------|
|-----------------------------||--------------------------|
|--9----9--9--9--11--11--11--*||*--8----8--8--8--9--9--9--|
|----------------------------*||*-------------------------|
|-----------------------------||--------------------------|
|-----------------------------||--------------------------|

                                   
|---------------------------------||
|---------------------------------||
|--11----11--11--11--13--13--13--*||
|--------------------------------*||
|---------------------------------||
|---------------------------------||

	
   SOLO                                                                                    
|-----------------------------|----------------------------|
|-----------------------------|----------------------------|
|*----------------------------|----------------------------|
|*----------------------------|----------------------------|
|---9----11--11--9--11--11----|--9----11--11--9--11--11----|
|---7----9---9---7--9---9-----|--7----9---9---7--9---9-----|

                                                    4x
|-------------------------|--------------------------||
|-------------------------|--------------------------||
|-------------------------|-------------------------*||
|--9----9--9--9--9--9--9--|-------------------------*||
|--7----7--7--7--7--7--7--|--9----9--9--9--9--9--9---||
|-------------------------|--7----7--7--7--7--7--7---||

 
   Bridge                                                        
|-------------------------|--0----------2----------|
|---2----------4----------|-----4----------4-------|
|*-----2----------2-------|--------4----------4----|
|*--------2----------2----|------------------------|
|-------------------------|------------------------|
|-------------------------|------------------------|


                                         3x  RITM (after 2 times)                     
|-4--------------------|-2------0---------||---------------------|
|----5-----4h5p4-------|---4-------4------||---2--------4--------|
|-------6---------6----|------4-------4--*||*-----2--------2-----|
|--------------------6-|-----------------*||*--------2--------2--|
|----------------------|------------------||---------------------|
|----------------------|------------------||---------------------|

                         4x
|--0----------2-----------||
|-----4----------4--------||
|--------4----------4----*||
|------------------------*||
|-------------------------||
|-------------------------||

   Chorus End
   KEY                                                     
|--------------------------|------------------------|
|--------------------------|------------------------|
|*-------------------------|------------------------|
|*-------------------------|------------------------|
|--------------------------|------------------------|
|---7----9--9--7--9--9--9--|--7----9--9--7--9--9----|


                                                            4x
|------------------------------|-----------------------------||
|------------------------------|-----------------------------||
|------------------------------|----------------------------*||
|------------------------------|----------------------------*||
|--9----11--11--9--11--11--11--|--9----11--11--9--11--11-----||
|------------------------------|-----------------------------||


                                3x                               
|--------------------------------||-----------------------------||
|--------------------------------||-----------------------------||
|*------------------------------*||-----------------------------||
|*------------------------------*||-----------------------------||
|---9----11--11--9--11--11--11---||--9----11--11--9--11--11--9--||
|---7----9---9---7--9---9---9----||--7----9---9---7--9---9---7--||




SOLO
                                                         
|--------------------------|---------------------------|
|--------------------------|---------------------------|
|--------------------------|---------------------------|
|--------------------------|-----6----9--9--6-6\9/-6---|
|-------------7--7-7~7-----|--7----------------------7\|
|--19\-----9------------9--|---------------------------|

                                                      
|--------------------------|--------------------------|
|--------------------------|--------------------------|
|--------------------------|--------------------------|
|-----6----9--9--6-6\9/-6--|-------------------9~-----|
|--9-----------------------|--7\-9~-------9/11----11--|
|--------------------------|--------------------------|

                                                                              
|-------------------------|---------|----------------------------|
|-------------------------|---------|--9-9--9-9--9-9--9-9--9-9---|
|-----9----6~-------------|--9--6~--|----------------------------|
|--9---------------9------|---------|----------------------------|
|-------------9/11----11--|---------|----------------------------|
|-------------------------|---------|----------------------------|

                                                                           
|-------------|------------------------|--7r---------------------|
|--7h9p7------|--9r------7-------------|----------9-----7--------|
|--------9-8~-|-------6-----6--9--6----|-------6-----6-----9--8--|
|-------------|------------------------|-------------------------|
|-------------|------------------------|-------------------------|
|-------------|------------------------|-------------------------|

                                                   
|--------------------------------------------------|
|--------------------------------------------------|
|--9--11h9p11h9p11h9p11h9p11h9p11h9p11h9p11h9p11h9-|
|--------------------------------------------------|
|--------------------------------------------------|
|--------------------------------------------------|

                                                             
|------------------------------------------------------------|
|------------------------------------------------------------|
|--11--13h11p13h11p13h11p13h11p13h11p13h11p13h11p13h11p13h11-|
|------------------------------------------------------------|
|------------------------------------------------------------|
|------------------------------------------------------------|

                                         
|----------------------------------------|
|--14--14-14-14--14-14-14--14-14-14--16--|
|----------------------------------------|
|----------------------------------------|
|----------------------------------------|
|----------------------------------------|

                                         
|----------------------------------------|
|--16--16-16-16--16-16-16--16-16-16--17--|
|----------------------------------------|
|----------------------------------------|
|----------------------------------------|
|----------------------------------------|

                                                             
|----------------------------------------|------------------||
|--17--17-17-17--17-17-17--17-17-17--19~-|------------------||
|----------------------------------------|------------------||
|----------------------------------------|------------------||
|----------------------------------------|------------------||
|----------------------------------------|------------------||



RITM
                                                         
E||--------------------------|--------------------------|
B||--------------------------|--------------------------|
G||--------------------------|--------------------------|
D||--7--7--7--7--7--7--7--7--|--9--9--9--9--9--9--9--9--|
A||--7--7--7--7--7--7--7--7--|--9--9--9--9--9--9--9--9--|
E||--5--5--5--5--5--5--5--5--|--7--7--7--7--7--7--7--7--|

                                                             
|--------------------------|----------------------------------|
|--------------------------|----------------------------------|
|--------------------------|----------------------------------|
|--7--7--7--7--7--7--7--7--|--9-9-9-9-9-9-9-9-9-9-9-9-9-9-9-9-|
|--7--7--7--7--7--7--7--7--|--9-9-9-9-9-9-9-9-9-9-9-9-9-9-9-9-|
|--5--5--5--5--5--5--5--5--|--7-7-7-7-7-7-7-7-7-7-7-7-7-7-7-7-|



KEY


|-16-14-|----11-|-19-16-|------|
|-------|-17----|-------|------|
|-------|-------|-------|------|
|-------|-------|-------|------|
|-------|-------|-------|------|
|-------|-------|-------|------|



KEY RITM

|-12-|
|-14-|
|----|
|----|
|----|
|----|



H.I.M. (His Infernal Majesty)- "Razorblade Kiss" (solo)

s= slide
p= pull off
h= hammer on

---------------------------10----10----------10-10-------------------10----10----12-
----------8-8-8----8-10s12----12----12s10s12-------12s10-8h10--10s12----12----------
--s10--10-------10------------------------------------------------------------------

-------------10------12b(14)(14)-(14)(14)-(14)(14)-(14)(14)-12r10s9-
-------10-------12--------------------------------------------------
-10h12----12--------------------------------------------------------

-10----------------13-----11----10---------------------------------
-------12---10---------------------12---10h12p10h12p10h12p10h12p10-
-----12--12----12------12----12------------------------------------

-----------------------------10-------10--10--10--10--10--10---12-------12--12--12
-----------------------------13b(15)-(15)(15)(15)(15)(15)(15)--15b(17)-(17)(17)(17)
12h14p12h14p12h14p12h14p12---------------------------------------------------------

-12--12--12---13-------13--13--13--13--13--13---15-------15--15--15--15--15--15---15-
(17)(17)(17)--16b(18)-(18)(18)(18)(18)(18)(18)--18b(20)-(20)(20)(20)(20)(20)(20)-(20)





Comments


Popular H.I.M tabs & chords
Beyond Redemption 1 Bass Tabs
Circle Of Fear 4 Bass Tabs
Killing Loneliness Bass Tabs
The Sacrament Bass Tabs
Lose You Tonight Tabs
Razorblade Kiss 6 Tabs
Right Here In My Arms (Intro) Tabs
Sigilium Diaboli Tabs
Sweet Pandemonium Ukulele
The Love That Died Ukulele


Song lyrics



↑ Back to top | Tablatures and chords are parodies/interpretations of the original songs. You may use it for private study, scholarship, research or language learning purposes only
© 2014 AZChords.com Contact us | Privacy policy | DMCA | Add/correct tabs | Request tabs | Top 50 tabs