>
 >
Lose You Tonight 5

Lose You Tonight 5 Guitar Tabs

H.I.M - Lose You Tonight 5 chords, tabs, tablatures, lyrics

Guitar lessons | Add/correct | Request | Top 50 tabs Artists:  A B C D E F G H I J K L M N O P Q R S T U V W X Y Z 0-9

Lose You Tonight 5 Guitar Tabs – H.I.M

CD, Sheet music, Poster

Do you like Lose You Tonight 5? Share with your friends now
Bass TabsBass Tabs v2TabsTabs v2Tabs v3Tabs v4Tabs v5
HIM
Lose You Tonight

Solo:
(1:53) 
  f                     f           f
e-----------------------------------------|
B-----------------------------------------|
G-11~-11-10-8-10--------10~-10-8----8-----|
D----------------11-8------------11-------|
A-----------------------------------------|
E-----------------------------------------|
  f                  f    f            f
e-------------------------13--14-12-11-13-|
B-11--11-13-14-13---------11--------------|
G-10--------------13-10-------------------|
D-----------------------------------------|
A-----------------------------------------|
E-----------------------------------------|
~ = vibrato                       (2:17)
f = full note





Comments


Popular H.I.M tabs & chords
And Love Said No 1 Bass Tabs
Beautiful Bass Tabs
Pretending Bass Tabs
Right Here In My Arms Chords
Scared To Death Chords
Lose You Tonight Tabs
Poison Girl Tabs
Vimpire Heart Intro Tabs
Behind The Crimson Door Ukulele
One Last Time Ukulele


Song lyrics



↑ Back to top | Tablatures and chords are parodies/interpretations of the original songs. You may use it for private study, scholarship, research or language learning purposes only
© 2014 AZChords.com Contact us | Privacy policy | DMCA | Add/correct tabs | Request tabs | Top 50 tabs