» » »

H.I.M, Lose You Tonight Tabs (ver.2)

Artists:  A B C D E F G H I J K L M N O P Q R S T U V W X Y Z # 

Lose You Tonight Tabs (ver.2)

H.I.M Tabs
Rating:
0/5 (0 votes)
Hard to play? Try these video lessons and learn fast.
                lose you tonight
HIM

normal tuning

do this a couple of times
e-----------------------
b-----------------------
g-----------------------
d-----------------------
a-----------------------
e42424242424-42424242424
then transfer to
e-----------------------
b-----------------------
g-----------------------
d-----------------------
a-----------------------
e64646464646-64646464646

then the verse with just bass

chorus
e(4)-(6)------(3)-----(4)
b(4)-(6)------(3)-----(4)
g(4)-(6)------(3)-----(4)
d-4---6--------3-------4
a-4---6--------3-------4
e-2---4--------1-------2


little solo kinda thing

e-----------------------------------------
b-s7-----s7-6-4-4h6--2-----s6---s6-4-2-2h4
g----------------------3------------------
d-----------------------------------------
a-----------------------------------------
e-----------------------------------------

e-6----6-8-8s9-8-4----9---11s13-11-9-9h11
b-6----------------6--9------------------
g-6-------------------9------------------
d-8--------------------------------------
a----------------------------------------
e----------------------------------------
then to chorus and then to second intro riff out
            

comments powered by Disqus
↑ Back to top | H.I.M Tabs for Lose You Tonight. Lyrics for acoustic guitar and electric guitar. Tablatures and chords are parodies/interpretations of the original songs. You may use it for private study, scholarship, research or language learning purposes only