» » »

H.I.M, Gone With The Sin Tabs (ver.3)

Artists:  A B C D E F G H I J K L M N O P Q R S T U V W X Y Z # 

Gone With The Sin Tabs (ver.3)

H.I.M Tabs
Rating:
0/5 (0 votes)
Gone With The Sin lessons Tabs too difficult? Try these video lessons and learn fast
                E|----------------------------------------------------------------------|
            B|----------------------------------------------------------------------|
            G|----13-11-9-8---8-9-9/11-9-8------------------------------------------|
            D|-11-----------9--------------11-9-11----------------------------------|
            A|-------------------------------------9h11-----------------------------|
            E|----------------------------------------------------------------------|

            Second Part
            E|----------------------------------------------------------------------|
            B|----------------------------------------------------------------------|
            G|----13-11-9-9h11----9-11-11/13-11-9-----------------------------------|
            D|-11--------------13-----------------13-11-9---------------------------|
            A|--------------------------------------------12-11-9-------------------|
            E|----------------------------------------------------12-11-------------|


 
            E|------------------------------------------------------------------|
            B|------------------------------------------------------------------|
            G|------------------------------------------------------------------|
            D|-9/11-13-14-13-14-16-16/18-16-14----------------------------------|
            A|---------------------------------18-16-14-------------------------|
            E|------------------------------------------17-16-14-12-11----------|



            E|------------------------------------------------------------------|
            B|------------------------------------------------------------------|
            G|------------------------------------------------------------------|
            D|------------------------------------------------------------------|
            A|------------------------------------------------------------------|
            E|-9-11-12-11-11/7-11-12--------------------------------------------|



Chorus			
                 	       	
|---5------|-----------||---------------------------|
|---5------|-----------||-----------4h5-4-----------|
|---6------|-----------||--------6---------6--------|
|---7------|-----------||-----6---------------6-----|
|---7------|-----------||--4---------------------4--|
|---5------|-----------||---------------------------|


                                                      
|--------------------------|--------------------------|
|--------------7-----------|--------------5-----------|
|-----------8-----8--------|-----------6-----6--------|
|--------9-----------9-----|--------7-----------7-----|
|-----9-----------------9--|-----7-----------------7--|
|--7-----------------------|---5----------------------|


                                                     
|--------------------------|
|--------9-----------------|
|-----------9-----------8--|
|-----9--------------9-----|
|--7--------------9--------|
|--------------7-----------|
            

comments powered by Disqus
↑ Back to top | H.I.M Tabs for Gone With The Sin. Lyrics for acoustic guitar and electric guitar. Tablatures and chords are parodies/interpretations of the original songs. You may use it for private study, scholarship, research or language learning purposes only