» » »

Dead Lovers Lane Tabs (ver.1)

Artists:  A B C D E F G H I J K L M N O P Q R S T U V W X Y Z # 

Dead Lovers Lane Tabs (ver.1)

H.I.M
Rating:
0/5 (0 votes)

Hard to play? Try these video lessons and learn fast.
                Band: HIM

Nice song, I tried to tab it correctly, hope you can play it and sorry if
some parts are wrong, specially in the solo, here we go...

Intro:
E|-----------|----------|                                    
B|-8p7-------|-8p7------|                                    
G|-----9~~~--|-----7~~~-|                             
D|-----------|----------|                                   
A|-----------|----------|x2                                     
E|-----------|----------|    

Piano:
E|----------|------------|
B|-------7--|-------7----|
G|-----9----|-----9---9--|
D|---9------|---9--------|
A|-7--------|-7----------|
E|----------|------------|                       
   
Then:x2
E|----------------------------------|---------------------------------|
B|----------------------------------|---------------------------------|
G|----------------------------------|---------------------------------|     
D|-------7-9-------7-9------5-4-----|-------7-9--------7-9-----5-4----|
A|---7-9-5-7---7-9-5-7-7-9--5-4-5/7-|---7-9-5-7---7-9--5-7-7-9-5-4-5~-|
E|-0-5-7-5-7-0-5-7-5-7-5-7------5/7-|-0-5-7-5-7-0-5-7--5-7-5-7-----5~-|
    

Verse:
E|--------------|--------------|  |-------------|-------------|-------------|------------|
B|--------------|--------------|  |-------------|-------------|-------------|------------|
G|-------0---0--|-------0---0--|  |-------0---0-|-------0---0-|-------0---0-|-/9-7-------|
D|---7----------|---7----------|  |---7---------|---7---------|---7---------|------10-9~-|
A|-7---7---7----|-5---5---5----|x2|-------------|-------------|-------------|------------|
E|--------------|--------------|  |-8---8---8---|-7---7---7---|-5---5---5---|------------|

E|--------------|--------------|  |-------------|-------------|-------------|-------------|-------------|
B|--------------|--------------|  |-------------|-------------|-------------|-------------|-------------|
G|-------0---0--|-------0---0--|  |-------0---0-|-------0---0-|-------0---0-|-------0---0-|-------0---0-|
D|---7----------|---7----------|  |---7---------|---7---------|---7---------|---7---------|---7---------|
A|-7---7---7----|-5---5---5----|x2|-------------|-------------|-------------|-------------|-------------|
E|--------------|--------------|  |-8---8---8---|-7---7---7---|-5---5---5---|-7---7---7---|-8---8---8---|

Prechorus:
E|-------|
B|-------|
G|-------|
D|-77-77-|
A|-55-55-|
E|-55-55-|

Chorus:
E|---------|  |---------------|------------------|
B|---------|  |---------------|------------------|
G|---------|  |---------------|------------------|     
D|-2~~/777-|  |-55/77/99/1212-|-5~~4~------------|
A|-2~~/555-|x2|-33/55/77/1010-|-3~~4~4-4-4-4-5-4-|
E|-0~~/555-|  |-33/55/77/1010-|-3~~2~2-2-2-2-3-2-|
                                       . . . 
Then:
E|----------------------------------|---------------------------------|
B|----------------------------------|---------------------------------|
G|----------------------------------|---------------------------------|     
D|-------7-9-------7-9------5-4-----|-------7-9--------7-9-----5-4----|
A|---7-9-5-7---7-9-5-7-7-9--5-4-5/7-|---7-9-5-7---7-9--5-7-7-9-5-4-5~-|
E|-0-5-7-5-7-0-5-7-5-7-5-7------5/7-|-0-5-7-5-7-0-5-7--5-7-5-7-----5~-|

Verse 2 SAME AS VERSE 1
PRECHORUS
CHORUS X2

Bridge:
E|--------|----|----|
B|--------|----|----|
G|--------|----|----|
D|-2h4444-|-7~-|-2~-|
A|-2h4444-|-7~-|-2~-|
E|-0h2222-|-5~-|-0~-|

Solo:
I do my best, I hope you can play it, sorry if its wrong :)

E|-------------------------------|-------------------------------------------------------|
B|-------------------------------|-1616----1414----1212----------------------------------|
G|-------------------------------|------14------14------14-14b-14-12---------------------|
D|-------------------------------|------------------------------------11b~~~~--11-9----9-|
A|-------------------------------|--------------------------------------------------11---|
E|-\99-0-77-0-55-0-44-0-2b(3)-0~-|-------------------------------------------------------|

E|-15^-151815----151815----151815----152015----152015----152015----|
B|------------17--------17--------17--------17--------17--------17-|
G|-----------------------------------------------------------------|
D|-----------------------------------------------------------------|
A|-----------------------------------------------------------------|
E|-----------------------------------------------------------------|

E|--------------------------------------------------|
B|-171514------12109----9---------------------------|
G|--------15---------11----119-119---9--------------|
D|---------------------------------11--12b~---------|
A|------------------------------------------14~-13~-|
E|--------------------------------------------------|

Then:x a lot of times
E|----------|------------|
B|-------7--|-------7----|
G|-----9----|-----9---9--|
D|---9------|---9--------|
A|-7--------|-7----------|
E|----------|------------|

E|-------|-----------------|---------------|
B|-------|-----------------|---------------|
G|-------|-----------------|---------------|
D|-22-22-|-----------------|---------------|
A|-22-22-|-----------------|-7-4-2-5-4-2-7-|
E|-00-00-|-0-5-2-0-3-2-0-5-|-5-2-0-3-2-0-5-|
   .. ..   . . . . . . . .

CHORUS

Then:
E|----------------------------------|---------------------------------|
B|----------------------------------|---------------------------------|
G|----------------------------------|---------------------------------|     
D|-------7-9-------7-9------5-4-----|-------7-9--------7-9-----5-4----|
A|---7-9-5-7---7-9-5-7-7-9--5-4-5/7-|---7-9-5-7---7-9--5-7-7-9-5-4-5~-|
E|-0-5-7-5-7-0-5-7-5-7-5-7------5/7-|-0-5-7-5-7-0-5-7--5-7-5-7-----5~-|

End:
E|-------|
B|-------|
G|-------|
D|-7~----|
A|-5~-4~-|
E|-5~----|

LOVE METAL IS ALIVE!!!
PEACE!!
            
Hard to play? Try these video lessons and learn fast. | Correct




comments powered by Disqus
↑ Back to top | Tablatures and chords are parodies/interpretations of the original songs. You may use it for private study, scholarship, research or language learning purposes only