» » »

Hillsongs, What The World Will Never Take Bass tabs (ver.1)

Artists:  A B C D E F G H I J K L M N O P Q R S T U V W X Y Z # 

What The World Will Never Take Bass tabs (ver.1)

Hillsongs Tabs
Rating:
0/5 (0 votes)
Hard to play? Try these video lessons and learn fast.
                #------------------------------------------------------------------------------##

                WHAT THE WORLD WILL NEVER TAKE (Bassline) (Live)
                         As recorded by Hillsong United
                        (From the 2004 Album LOOK TO YOU)

Words and Music by Matt Crocker, Scott Ligertwood and Marty Sampson
Arranged by Hillsong United

Gtr I (E A D G) - 'Bass'

 Intro
 4/4
  Gtr I
|-----||
|-----||
|-----||
|-----||


 Verse
|---------------|---------------|---------------|---------------|
|---------------|---------------|---------------|---------------|
|---------------|---------------|-5-5-(5)\------|-5-5-(5)\------|
|-5-5-(5)\------|-5-5-(5)\------|---------------|---------------|


|---------------|---------------|---------------|---------------||
|---------------|---------------|---------------|---------------||
|---------------|---------------|-5-5-(5)\------|-5-5-(5)\------||
|-5-5-(5)\------|-5-5-(5)\------|---------------|---------------||


 Pre-Chorus
|-----------|-------------|------------|---------------||
|-----------|-------------|------------|---------------||
|-5-5-------|-------------|--5-5-------|---------------||
|-----------|-5-5---7-7---|------------|-5-5---7-7--5--||


 Chorus
|-----------------|-----------------|-----------------|-----------------|
|-----------------|-----------------|-----------------|-----------------|
|-----------------|---------------5-|-5-5-5-5S9-9-9-9-|---------5-5-5-0-|
|-5-5-5-5-5-5-5-5-|-5-5-5-5-5-5-5---|-----------------|-7-7-7-7---------|


|-------------------|-----------------|-------------|---------------||
|------7------------|-----------------|-------------|---------------||
|-0-0-(0)-0-0-0-5-4-|-0-0-0-0-0-0-0-0-|-9--9--9--9--|-------5-5-----||
|-------------------|-----------------|-------------|-7--7------5-5-||


|-----------|---------|---------|-----||
|-----------|---------|---------|-----||
|-----------|---------|---------|-----||
|-5\--------|---------|---------|-----||


 Verse 2
|------------------|---------------|---------------|---------------||
|------------------|---------------|---------------|---------------||
|------------------|---------------|-5-5-(5)\------|-5-5-(5)\------||
|-5-5-(5)----(5)\--|-5-5-(5)\------|---------------|---------------||


 Pre-Chorus 2
|-----------|-------------|-----------|-----------------||
|-----------|-------------|-----------|-----------------||
|-5-5-------|-------2-2---|-5-5-------|---------2-2-0-0-||
|-----------|-5-5---------|-----------|-5-5-5-5---------||


   Chorus 2
||--------------------|-----------------|-----------------|------------------|
||o------7------------|-----------------|-----------------|------------------|
||o-0-0-(0)-0-0-0-5-4-|-0-0-0-0-0-0-0-0-|-5-5-5-5S9-9-9-9-|---------5-5-5-0--|
||--------------------|-----------------|-----------------|-7-7-7-7----------|


|-------------------|-----------------|-------------|----------------||
|------7------------|-----------------|-------------|---------------o||
|-0-0-(0)-0-0-0-5-4-|-0-0-0-0-0-0-0-0-|-9--9--9--9--|-------5-5-0-0-o||
|-------------------|-----------------|-------------|-7--7-----------||


 Instrumental
|------------|----------------|
|------------|----------------|
|-(0)--------|-(0)------(0)---|
|------------|--------------5S|


|-------------------------|-------------------------|
|-------------------------|-------------------------|
|-------------------------|-------------------------|
|-17-17-17-17-17-17-17-17-|-17-17-17-17-17-17-17-17-|


|------------|---------|---------|-----|
|------------|---------|---------|-----|
|------------|---------|---------|-----|
|-17\--------|---------|---------|-----|


|-------------------|---------------------|-------------|
|-------------------|---------------------|-------------|
|----------------12-|---------------------|-------------|
|-14--14--14--14----|-13--13--13--13-(13)S|=5--5--5--5--|


|-----------------|-------------------------|------------------------||
|-----------------|-------------------------|------------------------||
|-----------------|-------------------------|------------------------||
|-7-7-7-7-7-7-7-7S|=18-19-19-19-19-19-19-19-|-19-19-19-19-19-19-19S5-||


   Chorus 3
||--------------------|-----------------|-----------------|----------------|
||o------7------------|-----------------|-----------------|----------------|
||o-0-0-(0)-0-0-0-5-4-|-0-0-0-0-0-0-0-0-|-5-5-5-5S9-9-9-9-|---------5-5-5-0|
||--------------------|-----------------|-----------------|-7-7-7-7--------|


|-------------------|-----------------|-------------|----------------||
|------7------------|-----------------|-------------|---------------o||
|-0-0-(0)-0-0-0-5-4-|-0-0-0-0-0-0-0-0-|-9--9--9--9--|-------5-5-0-0-o||
|-------------------|-----------------|-------------|-7--7-----------||


 Outro
|---------------------|-------------------|
|------7---------7----|------7------------|
|-0-0-(0)-0-0-0-(0)-0-|-0-0-(0)-0-5-5-5-0-|
|---------------------|-------------------|


|---------------------|-------------------|
|------7---------7----|------7------------|
|-0-0-(0)-0-0-0-(0)-0-|-0-0-(0)-0-5-5-5-0-|
|---------------------|-------------------|


|--------*|
|--------*|
|-(0)----*|
|--------*|


Tablature Legend
----------------
 h   - hammer-on
 p   - pull-off
 b   - bend
 pb  - pre-bend
 r   - bend release (if no number after the r, then release immediately)
 /\  - slide into or out of (from/to "nowhere")
 s   - legato slide
 S   - shift slide
  - natural harmonic
[n]  - artificial harmonic
n(n) - tapped harmonic
 ~   - vibrato
 tr  - trill
 T   - tap
 TP  - trem. picking
 PM  - palm muting
\n/  - tremolo bar dip; n = amount to dip
 \n  - tremolo bar down
 n/  - tremolo bar up
/n\  - tremolo bar inverted dip
 =   - hold bend; also acts as connecting device for hammers/pulls
 <>  - volume swell (louder/softer)
 x   - on rhythm slash represents muted slash
 o   - on rhythm slash represents single note slash

Misc Legend
-----------
 |  - bar
||  - double bar
||o - repeat start
o|| - repeat end
*|  - double bar (ending)
 :  - bar (freetime)
 $  - Segno
 &  - Coda
Tempo markers -  = BPM(8/16=s8/s16), where s8 = swing 8ths, s16 = swing 16ths
            

comments powered by Disqus
↑ Back to top | Hillsongs Bass for What The World Will Never Take. Lyrics for acoustic guitar and electric guitar. Tablatures and chords are parodies/interpretations of the original songs. You may use it for private study, scholarship, research or language learning purposes only