» » »

Hillsongs, What The World Will Never Take Tabs (ver.2)

Artists:  A B C D E F G H I J K L M N O P Q R S T U V W X Y Z # 

What The World Will Never Take Tabs (ver.2)

Hillsongs Tabs
 Rating:
4/5 (4 votes)
What The World Will Never Take lessons Tabs too difficult? Try these video lessons and learn fast
                #------------------------------------------------------------------------------##

                      WHAT THE WORLD WILL NEVER TAKE (Live)
                         As recorded by Hillsong United
                        (From the 2004 Album LOOK TO YOU)

Words and Music by Matt Crocker, Scott Ligertwood and Marty Sampson
Arranged by Hillsong United

           A                    D                  Dadd9                 F#m
      x 0 2 2 2 0          x x 0 2 3 2          x 5 7 6 5 5          2 4 4 2 2 2

          B5                  Bsus4              F#m/maj7                 B
      x 6 4 4 4 x          x 2 4 4 0 0          2 4 3 2 2 2          x 2 4 4 4 2

Gtr I (E A D G B E) - 'Guitar 1'

   Intro
    Q=125
   4/4
    Gtr I
||---------------------|--------------------|
||o--------------------|--------------------|
||---------------------|--------------------|
||------7-7p6--x-6-6h7-|-----7-7p6--x-6-6h7-|
||o--------------------|--------------------|
||--5-5----------------|-5-5----------------|


|--------------------|---------------------||
|--------------------|--------------------o||
|--------------------|---------------------||
|-----7-7p6--x-6-6h7-|-----7-7p6--x-6-6h7--||
|-5-5----------------|-5-5----------------o||
|--------------------|---------------------||


 Verse
  A
|--------------------|--------------------|
|--------------------|--------------------|
|--------------------|--------------------|
|-----7-7p6--x-6-6h7-|-----7-7p6--x-6-6h7-|
|--------------------|--------------------|
|-5-5----------------|-5-5----------------|


  D
|--------------------|--------------------|
|--------------------|--------------------|
|--------------------|--------------------|
|-----7-7p6--x-6-6h7-|-----7-7p6--x-6-6h7-|
|-5-5----------------|-5-5----------------|
|--------------------|--------------------|


||---------------------|--------------------|
||o--------------------|--------------------|
||---------------------|--------------------|
||------7-7p6--x-6-6h7-|-----7-7p6--x-6-6h7-|
||o--------------------|--------------------|
||--5-5----------------|-5-5----------------|


|--------------------|----------------------||
|--------------------|----------------------||
|--------------------|----------------------||
|-----7-7p6--x-6-6h7-|-----7-7p6--x-6-6h7---||
|-5-5----------------|-5-5------------------||
|--------------------|----------------------||


 Pre-Chorus
  Dadd9                     F#m          B5
|-------------------------|---------------------------|
|-------------------------|---------------------------|
|-------------------------|---------------------------|
|-11-11-9-11-(11)-11-9-11-|-(11)-11-9-11-(11)-11-9-11-|
|-------------------------|---------------------------|
|-------------------------|---------------------------|


  Dadd9                       A            B5      A
|---------------------------|----------------------------||
|---------------------------|----------------------------||
|---------------------------|-------------------------2--||
|-(11)-11-9-11-(11)-11-9-11-|-(11)-11-9-11-(11)-11-9\-2--||
|---------------------------|-------------------------0--||
|---------------------------|----------------------------||


 Chorus
  $
                                    D
|-------------------|---------------2-|
|-------------------|---------------3-|
|-(2)-2-2-2-2-2-2-2-|-2-2-2-2-2-2-2-2-|
|-(2)-2-2-2-2-2-2-2-|-2-2-2-2-2-2-2-0-|
|-(0)-0-0-0-0-0-0-0-|-0-0-0-0-0-0-0---|
|-------------------|-----------------|


            F#m           Bsus4   D     A
|-(2)-2-2-2-------------|------------------|
|-(3)-3-3-3-------------|------------------|
|-(2)-2-2-2-11-11-11-11-|---------7-7-7-2--|
|-(0)-0-0-0-11-11-11-11-|-9-9-9-9-7-7-7-2--|
|------------9--9--9--9-|-9-9-9-9-5-5-5-0--|
|-----------------------|-7-7-7-7----------|


                                        F#m               Bsus4 D    A
|-------------------|-----------------|-----------------|---------------||
|-------------------|-----------------|-----------------|---------------||
|-(2)-2-2-2-2-2-2-2-|-2-2-2-2-2-2-2-2-|-11--11--11--11--|-------7-7--2--||
|-(2)-2-2-2-2-2-2-2-|-2-2-2-2-2-2-2-2-|-11--11--11--11--|-9--9--7-7--2--||
|-(0)-0-0-0-0-0-0-0-|-0-0-0-0-0-0-0-0-|--9---9---9---9--|-9--9--5-5--0--||
|-------------------|-----------------|-----------------|-7--7----------||


  1.
|--------------------|--------------------|
|--------------------|--------------------|
|--------------------|--------------------|
|-----7-7p6--x-6-6h7-|-----7-7p6--x-6-6h7-|
|--------------------|--------------------|
|-5-5----------------|-5-5----------------|


  D
|--------------------|---------------------||
|--------------------|--------------------o||
|--------------------|---------------------||
|-----7-7p6--x-6-6h7-|-----7-7p6--x-6-6h7--||
|-5-5----------------|-5-5----------------o||
|--------------------|---------------------||


 Chorus 2
  2.,3.
                                    D
|-------------------|---------------2-|
|-------------------|---------------3-|
|-(2)-2-2-2-2-2-2-2-|-2-2-2-2-2-2-2-2-|
|-(2)-2-2-2-2-2-2-2-|-2-2-2-2-2-2-2-0-|
|-(0)-0-0-0-0-0-0-0-|-0-0-0-0-0-0-0---|
|-------------------|-----------------|


            F#m           Bsus4   D     A
|-(2)-2-2-2-------------|------------------|
|-(3)-3-3-3-------------|------------------|
|-(2)-2-2-2-11-11-11-11-|---------7-7-7-2--|
|-(0)-0-0-0-11-11-11-11-|-9-9-9-9-7-7-7-2--|
|------------9--9--9--9-|-9-9-9-9-5-5-5-0--|
|-----------------------|-7-7-7-7----------|


                                                              To Coda
                                        F#m               Bsus4 D    A
|-------------------|-----------------|-----------------|---------------||
|-------------------|-----------------|-----------------|---------------||
|-(2)-2-2-2-2-2-2-2-|-2-2-2-2-2-2-2-2-|-11--11--11--11--|-------7-7--2--||
|-(2)-2-2-2-2-2-2-2-|-2-2-2-2-2-2-2-2-|-11--11--11--11--|-9--9--7-7--2--||
|-(0)-0-0-0-0-0-0-0-|-0-0-0-0-0-0-0-0-|--9---9---9---9--|-9--9--5-5--0--||
|-------------------|-----------------|-----------------|-7--7----------||


 Instrumental
|------------|------------|-----------------|------------------||
|------------|------------|-----------------|------------------||
|-(2)--------|-(2)--------|-2-2-2-2-2-2-2-2-|-2-2-2-2-2-2-2-2--||
|-(2)--------|-(2)--------|-2-2-2-2-2-2-2-2-|-2-2-2-2-2-2-2-2--||
|-(0)--------|-(0)--------|-0-0-0-0-0-0-0-0-|-0-0-0-0-0-0-0-0--||
|------------|------------|-----------------|------------------||


    F#m                       F#m/maj7
||--------------------------|-----------------------------|
||o-------10-------10----10-|-------10-12-12b13r(12)-10\--|
||--11-11----11-11----11----|-10-10-----------------------|
||--------------------------|-----------------------------|
||o-------------------------|-----------------------------|
||--------------------------|-----------------------------|


                    1.
  A                 B
|-----------------|-------------------||
|-----------------|------------------o||
|-----6-----6-----|-----8-----8---8/--||
|-7-7---7-7---7-7-|-9-9---9-9---9-----||
|-----------------|------------------o||
|-----------------|-------------------||


  2.
                                         D.S. al Coda
                                                     A
|-----------------|-----------------|------------------||
|-----------------|-----------------|------------------||
|-----8-----8---8-|-----8-----8-----|-8---8---8---8\-2-||
|-9-9---9-9---9---|-9-9---9-9---9-9-|---9---9---9----2-||
|-----------------|-----------------|----------------0-||
|-----------------|-----------------|------------------||


 Outro
  &
  A                        D    A                            D    A
|-----------------|--------2-2----|-----------------|--------2-2-----|
|-----------------|--------3-3----|-----------------|--------3-3-----|
|-(2)-2-2--2-2-2--|-2-2-2--2-2--2-|-(2)-2-2--2-2-2--|-2-2-2--2-2--2--|
|-(2)-2-2--2-2-2--|-2-2-2--0-0--2-|-(2)-2-2--2-2-2--|-2-2-2--0-0--2--|
|-(0)-0-0--0-0-0--|-0-0-0-------0-|-(0)-0-0--0-0-0--|-0-0-0-------0--|
|-----------------|---------------|-----------------|----------------|


|--------*|
|--------*|
|-(2)----*|
|-(2)----*|
|-(0)----*|
|--------*|


Tablature Legend
----------------
 h   - hammer-on
 p   - pull-off
 b   - bend
 pb  - pre-bend
 r   - bend release (if no number after the r, then release immediately)
 /\  - slide into or out of (from/to "nowhere")
 s   - legato slide
 S   - shift slide
  - natural harmonic
[n]  - artificial harmonic
n(n) - tapped harmonic
 ~   - vibrato
 tr  - trill
 T   - tap
 TP  - trem. picking
 PM  - palm muting
\n/  - tremolo bar dip; n = amount to dip
 \n  - tremolo bar down
 n/  - tremolo bar up
/n\  - tremolo bar inverted dip
 =   - hold bend; also acts as connecting device for hammers/pulls
 <>  - volume swell (louder/softer)
 x   - on rhythm slash represents muted slash
 o   - on rhythm slash represents single note slash

Misc Legend
-----------
 |  - bar
||  - double bar
||o - repeat start
o|| - repeat end
*|  - double bar (ending)
 :  - bar (freetime)
 $  - Segno
 &  - Coda
Tempo markers -  = BPM(8/16=s8/s16), where s8 = swing 8ths, s16 = swing 16ths
            
Submit corrections

comments powered by Disqus
↑ Back to top | Hillsongs Tabs for What The World Will Never Take. Lyrics for acoustic guitar and electric guitar. Tablatures and chords are parodies/interpretations of the original songs. You may use it for private study, scholarship, research or language learning purposes only