» » »

Hillsongs, What The World Will Never Take Tabs (ver.3)

Artists:  A B C D E F G H I J K L M N O P Q R S T U V W X Y Z # 

What The World Will Never Take Tabs (ver.3)

Hillsongs Tabs
 Rating:
4/5 (4 votes)
What The World Will Never Take lessons Tabs too difficult? Try these video lessons and learn fast
                
awesome song off of United's newest cd. its actually pretty simple.

Intro/Verse: A D
riff:
e|--------------------------------------------------------------------|
B|--------------------------------------------------------------------|
G|--------------------------------------------------------------------|
D|-----777-6-6-6h7------777-6-6-6h7------777-6-6-6h7------777-6-6-6h7-|
A|-----------------------------------5-5-------------5-5--------------|
E|-5-5--------------5-5-----------------------------------------------|x4

Pre-Chorus: D F# B
            D A B A
riff:

G|-6-6-4-6-6-4-6-6-4-6-6-4-6 x2

Chorus: A D F# B D
        A F# B D

This is how i play it:
   A            D    F#       B    D
e|-------------------------------------|
B|--------------7777-11111111------777-|
G|--------------7777-11111111------777-|
D|-777777777777-5555--9-9-9-9-9999-555-|
A|-777777777777---------------9999-----|
E|-555555555555---------------7777-----|

   A            F#              B     D
e|----------------------------------------|
B|--------------11--11--11--11------------|
G|---------------9---9---9---9--------777-|
D|-777777777777--9---9---9---9--9--9--777-|
A|-777777777777-----------------9--9--555-|
E|-555555555555-----------------7--7------|  end on the A

Second verse is the same thing as first only shorter.
Second chorus is the same just repeat once.

Bridge: Drums and bass line on A note for a couple seconds. and then..

Solo:

e|----------------------------------------------|
B|-------10-------10----10-------10-12-12b12-10-|
G|-11-11----11-11----11----10-10----------------|
D|----------------------------------------------|
A|----------------------------------------------|
E|----------------------------------------------|

e|------------------------------------|
B|------------------------------------|
G|-----6-----6-----------8-----8---8\-|
D|-7-7---7-7---7-7---9-9---9-9---9----|
A|------------------------------------|
E|------------------------------------|

e|----------------------------------------------|
B|-------10-------10----10-------10-12-12b12-10-|
G|-11-11----11-11----11----10-10----------------|
D|----------------------------------------------|
A|----------------------------------------------|
E|----------------------------------------------|

e|-------------------------------------------------------------------------|(build up on the B)
B|-------------------------------------------------------------------------|
G|-----6-----6-----------8-------8---8-----8-----8---8--88--88-*8^8--88@@--|
D|-7-7---7-7---7-7---9-9---9-9-9---9---9-9---9-9---9---99-9-9-@9-*999999---|
A|-------------------------------------------------------------------------|not exactly what
E|-------------------------------------------------------------------------|he does but you
                                                                get the picture

little bass riff during second half of solo:

G|----------------------------------------------|
D|------------------------------------8h9999999-|
A|-9-9-9-9-11-8-8-8-8/0-0-0-0-22222222----------|
E|----------------------------------------------|

Chorus x2

well thats pretty much it. please post corrections!
            
Submit corrections

comments powered by Disqus
↑ Back to top | Hillsongs Tabs for What The World Will Never Take. Lyrics for acoustic guitar and electric guitar. Tablatures and chords are parodies/interpretations of the original songs. You may use it for private study, scholarship, research or language learning purposes only