» » »

Hillsongs, One Way Bass tabs (ver.2)

Artists:  A B C D E F G H I J K L M N O P Q R S T U V W X Y Z # 

One Way Bass tabs (ver.2)

Hillsongs Tabs
 Rating:
4/5 (4 votes)
One Way lessons Tabs too difficult? Try these video lessons and learn fast
                (mail me if you want to correct this tab or have suggestion)
Alvin


Standard Tuning.

Intro(drum first)
------------------|--------------------------|
------------------|--------------------------|
------------------|--------------------------|
------------------|--7--7--7--7--7--7--7--7--|


                                                      
--------------------------|--------------------------|
--------------------------|--------------------------|
--------------------------|--------------------------|
--7--7--7--7--7--7--7--7--|--4--4--4--4--4--4--4--4--|


                                                  
----------------------|--------------------------|
----------------------|--------------------------|
--7----6----4----6----|--------------------------|
----------------------|--2--2--2--2--2--2--2--2--|


                                                      
--------------------------|--------------------------|
--------------------------|--------------------------|
--------------------------|--------------------------|
--2--2--2--2--2--2--2--2--|--0--0--0--0--0--0--0--0--|


                                                      
--------------------------|
--------------------------|
--------------------------|
--0--0--0--0--0--0--0--0--|





Verse 1

--------------------------|
--------------------------|
--------------------------|
--7--7--7--7--7--7--7--7--|x2

--------------------------|
--------------------------|
--------------------------|                                                     
--4--4--4--4--4--4--4--4--|x2


                                                      
--------------------------|
--------------------------|
--------------------------|
--2--2--2--2--2--2--2--2--|x2


                                                      
--------------------------|
--------------------------|
--------------------------|
--0--0--0--0--0--0--0--0--|x2

 
                                                     


Chorus
--------------------------|
--------------------------|
--------------------------|
--7--7--7--7--7--7--7--7--|
      
                                                
--------------------------|--------------------------|
--------------------------|--------------------------|
--------------------------|--------------------------|
--2--2--2--2--2--2--2--2--|--4--4--4--4--4--4--4--4--|


                                                      
--------------------------|--------------------------|
--------------------------|--------------------------|
--------------------------|--------------------------|
--0--0--0--0--0--0--0--0--|--7--7--7--7--7--7--7--7--|


                                                      
--------------------------|--------------------------|
--------------------------|--------------------------|
--------------------------|--------------------------|
--2--2--2--2--2--2--2--2--|--4--4--4--4--4--4--4--4--|


                                                      
--------------------------|
--------------------------|
--------------------------|
--5--5--5--5--5--5--5--5--|


Interlude (x2)
--------------------------|
--------------------------|
--------------------------|
--4--4--4--4--4--4--4--4--|


                                                      
--------------------------|
--------------------------|
--------------------------|
--0--0--0--0--0--0--0--0--|
                                                     



Verse 2 (x2)
--------------------------|
--------------------------|
--------------------------| 
--7--7--7--7--7--7--7--7--|x2


--------------------------|                                                     
--------------------------|
--------------------------|
--4--4--4--4--4--4--4--4--|x2


                                                      
--------------------------|
--------------------------|
--------------------------|
--2--2--2--2--2--2--2--2--|x2


                                                      
--------------------------|
--------------------------|
--------------------------|
--0--0--0--0--0--0--0--0--|x2


                                                    

Bridge
--------------------------|
--------------------------|
--------------------------|
--7--7--7--7--7--7--7--7--|
 
                                                     
--------------------------|--------------------------|
--------------------------|--------------------------|
--------------------------|--------------------------|
--2--2--2--2--2--2--2--2--|--4--4--4--4--4--4--4--4--|


                                                      
--------------------------|--------------------------|
--------------------------|--------------------------|
--------------------------|--------------------------|
--0--0--0--0--0--0--0--0--|--4--4--4--4--4--4--4--4--|


                                                      
--------------------------|--------------------------|
--------------------------|--------------------------|
--------------------------|--------------------------|
--2--2--2--2--2--2--2--2--|--0--0--0--0--0--0--0--0--|


Last Chorus(x2)
---------------------|
---------------------|
---------------------|
--777---222----------|

--------------------------|
--------------------------|
--------------------------|
--4--4--4--4--4--4--4--4--|

--------------------------|
--------------------------|
--------------------------|
--0--0--0--0--0--0--0--0--|

Play this to end off the song
--------------------------|
--------------------------|
--------------------------|
--5--5--5--5--5--5--5--5/7|
            
Submit corrections

comments powered by Disqus
↑ Back to top | Hillsongs Bass for One Way. Lyrics for acoustic guitar and electric guitar. Tablatures and chords are parodies/interpretations of the original songs. You may use it for private study, scholarship, research or language learning purposes only