» » »

Hillsongs, One Way Tabs (ver.1)

Artists:  A B C D E F G H I J K L M N O P Q R S T U V W X Y Z # 

One Way Tabs (ver.1)

Hillsongs Tabs
 Rating:
4/5 (4 votes)
One Way lessons Tabs too difficult? Try these video lessons and learn fast
                --------------------------------------------------------------------------
--------------------------------------------------------------------------

Tuning: Standard

Intro
e|----------------------------------------------------------------------|3
B|----------------------------------------------------------------------|T
G|----------------------------------------------------------------------|I
D|--9999999999999999-666666---------------4444444444444444-2222222222222222-----|M
A|--9999999999999999-666666-66-77-66-44-6-4444444444444444-2222222222222222-----|E
E|--7777777777777777-444444---------------2222222222222222-0000000000000000-----|S
    ................ ...... .. .. .. .. . ................ ................

Chorus
e|------------------------------------------
B|------------------------------------------
G|------------------------------------------
D|--99999999-44444444-66666666-22222222-----
A|--99999999-44444444-66666666-22222222-----
E|--77777777-22222222-44444444-00000000-----

e|------------------------------------------|
B|------------------------------------------|
G|------------------------------------------|
D|--99999999-44444444-66666666-77777777-----|
A|--99999999-44444444-66666666-77777777-----|
E|--77777777-22222222-44444444-55555555-----|

Riff
e|-----------------------------------|2
B|-----------------------------------|T
G|--8-8-6-8--8-6-8--8-6-8-8b-8-6-----|I
D|-----------------------------------|M
A|-----------------------------------|E
E|-----------------------------------|S

Verse
e|----------------------------------------------------------------------|2
B|----------------------------------------------------------------------|T
G|----------------------------------------------------------------------|I
D|--9999999999999999-666666---------------4444444444444444-2222222222222222-----|M
A|--9999999999999999-666666-66-77-66-44-6-4444444444444444-2222222222222222-----|E
E|--7777777777777777-444444---------------2222222222222222-0000000000000000-----|S
    ................ ...... .. .. .. .. . ................ ................

Chorus (the whole thing x2)
e|------------------------------------------
B|------------------------------------------
G|------------------------------------------
D|--99999999-44444444-66666666-22222222-----
A|--99999999-44444444-66666666-22222222-----
E|--77777777-22222222-44444444-00000000-----

e|------------------------------------------|
B|------------------------------------------|
G|------------------------------------------|
D|--99999999-44444444-66666666-77777777-----|
A|--99999999-44444444-66666666-77777777-----|
E|--77777777-22222222-44444444-55555555-----|

Bridge
e|----------------------------------------------------------------------|2
B|----------------------------------------------------------------------|T
G|----------------------------------------------------------------------|I
D|--99-9-9-9-44-4-4-4-66-6-6-6-22-2-2-2-66-6-6-6-44-4-4-4-22-2-2-2-22-2-2-2-----|M
A|--99-9-9-9-44-4-4-4-66-6-6-6-22-2-2-2-66-6-6-6-44-4-4-4-22-2-2-2-22-2-2-2-----|E
E|--77-7-7-7-22-2-2-2-44-4-4-4-00-0-0-0-44-4-4-4-22-2-2-2-00-0-0-0-00-0-0-0-----|S
    .. . . . .. . . . .. . . . .. . . . .. . . . .. . . . .. . . . .. . . .

e|----------------------------------------------------------------------|2
B|----------------------------------------------------------------------|T
G|----------------------------------------------------------------------|I
D|--99999999-44444444-66666666-22222222-66666666-44444444-2222222222222222-----|M
A|--99999999-44444444-66666666-22222222-66666666-44444444-2222222222222222-----|E
E|--77777777-22222222-44444444-00000000-44444444-22222222-0000000000000000-----|S

Chorus
e|----------------------------------------
B|----------------------------------------
G|----------------------------------------
D|--999-----444-----66666666-22222222-----
A|--999-----444-----66666666-22222222-----
E|--777-----222-----44444444-00000000-----

e|----------------------------------------|
B|----------------------------------------|
G|----------------------------------------|
D|--999-----444-----66666666-77777777-----|
A|--999-----444-----66666666-77777777-----|
E|--777-----222-----44444444-55555555-----|

e|------------------------------------------
B|------------------------------------------
G|------------------------------------------
D|--99999999-44444444-66666666-22222222-----
A|--99999999-44444444-66666666-22222222-----
E|--77777777-22222222-44444444-00000000-----

e|-----------------------------------------------------|
B|-----------------------------------------------------|
G|-----------------------------------------------------|
D|--99999999-44444444-66666666-7777777777777777-9~-----|
A|--99999999-44444444-66666666-7777777777777777-9~-----|
E|--77777777-22222222-44444444-5555555555555555-7~-----|


| /  slide up
| \  slide down
| h  hammer-on
| p  pull-off
| ~  vibrato
| +  harmonic
| x  mute note
| .  palm mute
==========================================================================
            
Submit corrections

comments powered by Disqus
↑ Back to top | Hillsongs Tabs for One Way. Lyrics for acoustic guitar and electric guitar. Tablatures and chords are parodies/interpretations of the original songs. You may use it for private study, scholarship, research or language learning purposes only