» » »

Hillsongs, Mighty To Save Bass tabs (ver.2)

Artists:  A B C D E F G H I J K L M N O P Q R S T U V W X Y Z # 

Mighty To Save Bass tabs (ver.2)

Hillsongs Tabs
 Rating:
4/5 (4 votes)
Mighty To Save lessons Tabs too difficult? Try these video lessons and learn fast
1
                i believe this is how this song goes might be a few errors but sounds just fine when you 
play it with the song.


Tuning ( EADG}


Intro

       D          A       F#/Gb       E             D
G|------------------------------------------|----|-----------|
D|------------------------------------------|----|-----------|
A|--55555555--------------------------------|2X--|--5~-REST--|
E|------------55555555--22222222--00000000--|----|-----------|

       D          E         D         E    A
G|-------------------------------------------------|
D|-------------------------------------------------|
A|--55555555--77777777--55555555--7777777--0~-REST-|
E|-------------------------------------------------|
    Verse
       D          A       F#/Gb       E
G|------------------------------------------|
D|------------------------------------------|
A|--55555555--------------------------------|
E|------------55555555--22222222--00000000--|

        D                     A                 F#/Gb
G|--------------------------------------------------------------|
D|--------------------------------------------------------------|
A|--55555-5--5-5--5555------------------------------------------|
E|----------------------55555-5--5-5--5555--22222-2--2-2--2222--|

           E                   D         E        D         E
G|---------------------|---|--------------------------------------|
D|---------------------|---|--------------------------------------|
A|---------------------|2X-|-5555555--7777777--5555555--77777777--|
E|--00000-0--0-0--0000-|---|--------------------------------------|

      Pre Chorus

     A      EhA   E        D        E     F#/Gb    E
G|------------------------------------------------------------------|
D|------------------------------------------------------------------|
A|---0~-------------------5--5---7--0h7---9--9---7--0h7-------------|4X
E|---------0h5----0~------------------------------------------------|

  Chorus

         D          A           E        F#/Gb           A
G|-----------------------------------------------|----|--------------|
D|-----------------------------------------------|----|--------------|
A|----55555555--------------77777777-/-99999999--|6X--|--0~-REST-----|
E|---------------5555-0h5------------------------|----|--------------|


      F#/Gb          E       A   EhA  E   D     E    F#/Gb   E
G|------------------------|-----------------------------------------|
D|------------------------|-----------------------------------------|
A|------------------------|--0~----------5--5--7-0h7--9--9--7-0h7---|2x
E|---22222222----00000000-|------0h5--0~----------------------------|

         D          A          E        F#/Gb              D
G|----------------------------------------------|-----|------------------|
D|----------------------------------------------|-----|------------------|
A|----55555555-------------77777777-/-99999999--|4X---|--555555-\\\-REST-|
E|--------------5555-0h5------------------------|-----|------------------|

        D         A          E       F#/Gb
G|----------------------------------------------|
D|----------------------------------------------|
A|---5555555-------------77777777-/-99999999----|
E|------------55555555--------------------------|



          D         A          E        F#/Gb
G|----------------------------------------------|----|------|
D|----------------------------------------------|----|------|
A|----55555555-------------77777777-/-99999999--|4x--|--5~--|
E|--------------5555-0h5------------------------|----|------|



Well i believe thats it have fun =)
            
Submit corrections

comments powered by Disqus
↑ Back to top | Hillsongs Bass for Mighty To Save. Lyrics for acoustic guitar and electric guitar. 1 Tablatures and chords are parodies/interpretations of the original songs. You may use it for private study, scholarship, research or language learning purposes only