» » »

Hillsongs, Mighty To Save Tabs (ver.2)

Artists:  A B C D E F G H I J K L M N O P Q R S T U V W X Y Z # 

Mighty To Save Tabs (ver.2)

Hillsongs Tabs
Rating:
0/5 (0 votes)
Mighty To Save lessons Tabs too difficult? Try these video lessons and learn fast
                Mighty to save by hillsong

*updated 6/08/07 with some ppl's request that i didnt put on before. 
so before you rate pls.. take a look and know how to play it ;)

start with intro riff 1..then drums ..then acoustic gtr and then the riff 2

Intro riff 1 (gtr1)

E|------9--(pick the 14 note and use ur 2 fingers to fingerpick the 2-|
B|---12---- others..thats how my friend taught me)<-------------------|lol
G|-14-----------------------------------------------------------------|

alternatively cos its very very stretchy and i cant get it myself while standing! 

E|----------
B|----12-14- but it doesnt sound very good..id prefer the original 
G|-14-------

riff 2 (gtr2)

E|-x-x-x-x-x-x-x-x-x-x-x-x-x-x-x-x-x-x-x-x-x-x--| (ok so yea..use wah effect
B|-10101010101010101010101010--999999-10101010--|  and alternate strum 
G|--9-9-9-9-9-9-9-9-9-9-9-9-9--999999--9-9-9-9--|  and slow then fast..) 
D|--7-7-7-7-7-7-7-7-7-7-7-7-7--777777--7-7-7-7--|
A|-x-x-x-x-x-x-x-x-x-x-x-x-x-x-x-x-x-x-x-x-x-x--|
E|-x-x-x-x-x-x-x-x-x-x-x-x-x-x-x-x-x-x-x-x-x-x--|


Verse 1

D2                           A
When everyone needs compassion,
                        F#m
And love that never fails,
   E                D2
Let mercy fall on me

D2                          A
When everyone needs forgiveness,
                     F#m
Kindness of the Saviour
  E                  D2   D2  E  D2 E
The Hope of the nation

Electric guitar part for (D2 E D2 E) before kicking in chorus

let ring for each chord:

E|-----------
B|-7-9-10-12-  
G|-7-9--9--9-
D|-7-9--7--9-
A|-5-7-------
e|-----------

(Chorus) 2nd time chorus with Dist  
A2                               E
Saviour, He can move the mountain,
         D2               A
My God is mighty to save,
      F#m           E
He is mighty to save
A2                         E
Forever author of salvation,
         D2                  A
He rose and conquered the grave
   F#m                 E
Jesus conquered the grave

Intro riff 1 and 2 (verse 2 is played along with the riff)

Verse 2 (sams as verse 1)

So take me as you find me
All my fears and failures
Fill my life again

I give my life to follow
Everything that i’d believe in
Now i surrender (and i surrender)

(Chorus x2)

Solo with wah before bridge 
    D2                         
|---9---9---9--9---9---9---9---9--9--9|
|--10--10--10-10--10--10--10--10-10-10|
|-9---9---9----9--9----9---9----------|
|-------------------------------------|
|-------------------------------------|
|-------------------------------------|

  A2       E            F#m          
|-------------------------------------|
|-99999999-121212121212-212121212121s-|
|-------------------------------------| alternate pick here(on the 9s,12s
|-------------------------------------| and 21s)
|-------------------------------------|
|-------------------------------------|

   D2
|--9--9--7--9--7--9--7--9--9--7--9-9--|
|-10-10-10-10-10-10-10-10-10-10-10-10-|
|-------------------------------------|
|-------------------------------------|
|-------------------------------------|
|-------------------------------------|

  A2        E           F#m
|---------------------------------------|
|-99999999-121212121212-21212121212121s-|alternate pick
|---------------------------------------|
|---------------------------------------|
|---------------------------------------|
|---------------------------------------|

(Bridge)
D2                 A2                      E
Shine a light in and let the whole world see
 F#m       D2           A2              E          
Singing, for the glory of the risen king
  F#m     D2            A2                   E
Jesus, Shine a light and let the whole world see
 F#m       D2            A2              E
Singing for the glory of the risen king
            

comments powered by Disqus
↑ Back to top | Hillsongs Tabs for Mighty To Save. Lyrics for acoustic guitar and electric guitar. Tablatures and chords are parodies/interpretations of the original songs. You may use it for private study, scholarship, research or language learning purposes only