» » »

Hillsongs, God Is Able Chords (ver.3)

Artists:  A B C D E F G H I J K L M N O P Q R S T U V W X Y Z # 

God Is Able Chords (ver.3)

Hillsongs Tabs
 Rating:
4/5 (4 votes)
God Is Able lessons Tabs too difficult? Try these video lessons and learn fast
1
                Intro
e-9-p7--9-p7--9-p7---12-11--9-p7--9-p7---7------|
B------------------------------------------9-12-|
G-----------------------------------------------|
D-----------------------------------------------|
A-----------------------------------------------|
E-----------------------------------------------|


Verse 1:
       B
God is able
         F#
He will never fail
Abm        E
He is almighty God
              B
Greater than all we seek
              F#
Greater than all we ask
Abm  E   F#
He has done great things



Chorus
       B                      F#
Lifted up, He defeated the grave
            Abm              E
raised to life, our God is able
        B            F#
in his name we overcome
         Abm               E
for the Lord, our God is able



Solo
e-----------------------------------|
B-7-7-7-7-7-------------------------|
G------------9-8-6-6-6-6-6-6--------|
D-----------------------------8-8-9-|
A-----------------------------------|
E-----------------------------------|

e---------------------------------|
B--7-7-7-7-7-7-7------------------|
G-----------------8-8-8-6-6-9-9-9-|
D---------------------------------|
A---------------------------------|
E---------------------------------|

Bridge
        B
God is with us
        F#
He will go before
            Abm
He will never leave us
             E
He will never leave us
        B
God is for us
       F#
He has open arms
             Abm
He will never fail us
             E
He will never fail us


Chorus
       B                      F#
Lifted up, He defeated the grave
            Abm              E
raised to life, our God is able
        B            F#
in his name we overcome
         Abm               E
for the Lord, our God is able


end on E

hope you like this
God bless
-Avery
            
Submit corrections

comments powered by Disqus
↑ Back to top | Hillsongs Chords for God Is Able. Lyrics for acoustic guitar and electric guitar. 1 Tablatures and chords are parodies/interpretations of the original songs. You may use it for private study, scholarship, research or language learning purposes only