» » »

Hillsongs, God Is Able Tabs (ver.2)

Artists:  A B C D E F G H I J K L M N O P Q R S T U V W X Y Z # 

God Is Able Tabs (ver.2)

Hillsongs Tabs
 Rating:
4/5 (4 votes)
God Is Able lessons Tabs too difficult? Try these video lessons and learn fast
                CAPO 4


Intro:
E|----5\3--3--5--3-------7--8-8-7-----5\3--3--5--3-------------------3------|   X3
B|-----------------------------------------------------------3---5-5--------|
G|--------------------------------------------------------------------------|
D|--------------------------------------------------------------------------|
A|--------------------------------------------------------------------------|
E|--------------------------------------------------------------------------|

Verse:
E|---------------------------------2-----------------------------------0--------|
B|----------3-----------------3------3-------------0--3-------------1----1------|
G|-----0------4-----------------0-----------------------0-----------------------|
D|---4---4-----------------4--------------------2----------------2--------------|
A|------------------------------------------------------------------------------|
E|------------------------------------------------------------------------------|

E|------------------------2-----------------------------------------------------|
B|---------3----------3-----3-------0---0----------1----1------3------3---------|
G|----0------4----------0-----------------0----------------------0--------------|
D|--4---4-----------4-------------2---2-----2--------2----2/4------4-----4------|
A|------------------------------------------------------------------------------|
E|------------------------------------------------------------------------------|

Chorus:
E|------------------------------------------------|
B|------8-8-8-8-10-10-10-10-8-8-8-8-8-8-8-8-------|X3
G|-7-7--------------------------------------------|
D|------------------------------------------------|
A|------------------------------------------------|
E|------------------------------------------------|

E|-----------------7-7-7-7-----------------------------|
B|---------8-8-8-8---------10-10-10-10-10-10-10-10-----|
G|-----------------------------------------------------|
D|--10-10----------------------------------------------|
A|-----------------------------------------------------|
E|-----------------------------------------------------|

Instrumental:
E|-----10--10--10-10-10---8--8--7--7/5--5--5--5----------------|
B|------------------------------------------------7--7--8--8---|
G|-----7---7---7---7--7---5--5--4--4/2--2--2--2----------------|
D|------------------------------------------------4--4--5--5---|
A|-------------------------------------------------------------|
E|-------------------------------------------------------------|

E|-----10-10-10-10--7--7--5--5--8--8--8--8--8--8--8--8---------|
B|-------------------------------------------------------------|
G|-----7--7---7--7--4--4--2--2--5--5--5--5--5--5--5--5---------|
D|-------------------------------------------------------------|
A|-------------------------------------------------------------|
E|-------------------------------------------------------------|

Bridge:
E|--7--7--7--7--7--7--7--7------------------------------------|
B|--8--8--8--8--8--8--8--8---10-10-10-10-10-10-10-10----------|
G|--7--7--7--7--7--7--7--7----7--7---7--7---7--7---7--7-------|
D|-----------------------------7--7---7--7---7--7---7--7------|
A|------------------------------------------------------------|
E|------------------------------------------------------------|

E|--7--7--7--7----x--x--7--7----8--8--8--8--8--8--8--8--------|
B|--8--8--8--8---10-10--8--8----8--8--8--8--8--8--8--8--------|
G|--7--7--7--7---7--7---7--7----7--7--7--7--7--7--7--7--------|
D|------------------------------------------------------------|
A|------------------------------------------------------------|
E|------------------------------------------------------------|
            
Submit corrections

comments powered by Disqus
↑ Back to top | Hillsongs Tabs for God Is Able. Lyrics for acoustic guitar and electric guitar. Tablatures and chords are parodies/interpretations of the original songs. You may use it for private study, scholarship, research or language learning purposes only