» » »

Hillsongs, Deeply Inlove Tabs (ver.3)

Artists:  A B C D E F G H I J K L M N O P Q R S T U V W X Y Z # 

Deeply Inlove Tabs (ver.3)

Hillsongs Tabs
Rating:
0/5 (0 votes)
Deeply Inlove lessons Tabs too difficult? Try these video lessons and learn fast
                Deeply Inlove


happy love's day to all!!! esp. JESUS

uy!!! kevs e2 na ung tab...practise na ha,

pra sa lahat na gusto ng song na toh try nio toh,
deeply inlove by youth alive pra sa love's day feb 14
si edra nga adik sa kantang toh hehehehe
verse 1

e|--------------------2h3--------------------3h2--2---2-----|
B|-----3-3---3-------------3-3-----------3-3----------------|
G|-----------------2-------------------0--------------------|
D|---------2---2-0----0--------------0-------0------0-0-----|
A|---2-3-3---3-------------------0h2-------3----------------|
E|-o-----------------------3-2-0----------------------------|


e|--------------------2h3--------------------3h2--2-2-------|
B|-----3-3---3-------------3-3-----------3-3----------------|
G|-----------------2-------------------0--------------------|
D|---------2---2-0----0--------------0-------0--------------|
A|---2-3-3---3-------------------0h2-------3----------------|
E|-o-----------------------3-2-0----------------------------|

Verse 1

e|----------------2h3-----------------------2-----|
B|-----3-3------3-----3-3-----3-3---3-----3-------|
G|------------2-------------------------2---------|
D|----------0-----0---------------2---0-----------|
A|---2-3-3------------------2-3-3---3-------------|
E|-o------------------3-2-0-----------------------|


e|----------------2h3--------------------0---2----|
B|-----3-3------3-----3-3-----3-3-----3-----------|
G|------------2---------------------2-------------|
D|----------0-----0---------------0------0---0----|
A|---2-3-3------------------2-3-3-----------------|
E|-o------------------3-2-0-----------------------|

Chorus:


e|-------------2h3--------------------2h3-----|
B|---3-3-----3-----3-3------3-3-----3-----3-3-|
G|---------2----------------------2-----------|
D|-------0-----0----------------0-------------|
A|---2-3------------------2-3-3---------------|
E|-o---------------3-2-0------------------3-2-|


e|-------------2h3--------------------0-2-----|
B|---3-3-----3-----3-3------3-3-----3---------|
G|---------2----------------------2-----------|
D|-------0-----0----------------0-----0-0-----|
A|---2-3------------------2-3-3---------------|
E|-o---------------3-2-0----------------------|

Pre-verse 2

e|-----3-------------------3-------------|
B|-------3s5-7-8-10-8--------3s5---3-----|
G|-2h4-----------------2h4---------------|
D|---------------------------------------|
A|---------------------------------------|
E|- -------------------------------------|

Verse 2: same as verse 1
Instrumental:

e|-----3---------10-10---10--------------|
B|-------3s5-7-8-------8-----------------|
G|-2h4-----------------------------------|
D|---------------------------------------|
A|---------------------------------------|
E|- -------------------------------------|

e|-----3------------10—14s15-14b---------|
B|-------3s5----10-----------------------|
G|-2h4-------11--------------------------|
D|--------------------------------14-13b-|
A|---------------------------------------|
E|- -------------------------------------|

e|-----3---------------------------------|
B|-------3s5—5h4-------------------------|
G|-2h4-----------5-4---------------------|
D|------------------5-4------------------|
A|----------------------7-6v-------------|
E|- -------------------------7v----------|

This part is not 100% accurate
e|-----3------------7h8-10-7-8-11-14-15--|
B|-------3s5-7h8-10-7--------------------|
G|-2h4-------7---------------------------|
D|---------------------------------------|
A|---------------------------------------|
E|- -------------------------------------|

to God be the Glory!!!
            

comments powered by Disqus
↑ Back to top | Hillsongs Tabs for Deeply Inlove. Lyrics for acoustic guitar and electric guitar. Tablatures and chords are parodies/interpretations of the original songs. You may use it for private study, scholarship, research or language learning purposes only