>
 >
Deeply Inlove 1

Deeply Inlove 1 Guitar Tabs

Hillsongs - Deeply Inlove 1 chords, tabs, tablatures, lyrics

Guitar lessons | Add/correct | Request | Top 50 tabs Artists:  A B C D E F G H I J K L M N O P Q R S T U V W X Y Z 0-9

Deeply Inlove 1 Guitar Tabs – Hillsongs

CD, Sheet music, Poster

Do you like Deeply Inlove 1? Share with your friends now
ChordsTabsTabs v2Tabs v3Ukulele
-------------------------------------------------------------------------------
                            Deeply In Love - Hillsong/hillsongs
-------------------------------------------------------------------------------
Tuning:standard

Tabs below are the closes i can get to the original hillsongs..And i've supplied the 
and clear instructions.
Enjoy...

Intro:

   Em      C        D(h)hmmer on  G  F#    Em     C    Dsus  D
e|------3--3-----------2h3--------3--3--|---------3----23p3-----2-----------|
B|------3--3----3-----3-----------3--3--|------2--3----3--------3-----------|
G|------0-------0----2------------------|-----0--------2--------2-----------|
D|----2----2--------0----------------2--|----0----2----0-------0------------|
A|---------3--3-------------------2-----|--h2-----3-------------------------|
E|--o-----------------------------3--2--|-----------------------------------|


Verse 1:
In my life You`ve heard me say I love you,      How do I show you it`s true
   Em    C       D/Dsus      G  F#          Em    C         D
e|----3--3----------2h3------3--3--------|-----3--3---------------2---------|
B|----3--3---------3---------3--3--------|-----3--3------3------3-----------|
G|----0-----------2----------------------|-----0---------2----2-------------|
D|--2----2-------0--------------2--------|---2----2---2-----0---------------|
A|---------------------------2-----------|----------------------------------|
E|-o-------------------------3--2--------|--o-------------------------------|

Hear my heart,  it longs for more of you,        I've fallen deeply in love with you.
      Em       C      D        Em D C(432)                             D
e|-------3--3--------2--3--2--3----------|------3---------------2-----------|
B|-------3--0--------3--3--3--3----------|------3------------3--------------|
G|-------0--2------2-------2-------------|----0------------2----------------|
D|----2-----3----0------2--0--2----------|--2-----------0-------------------|
A|----------------------2-----3----------|----------------------------------|
E|--0------------------------------------|----------------------------------|

Intro:
 Em C D G F#, Em (hammeron 2nd fret 2nd string) C D hammeroff (repeat 2)


Em    C         D Dsus(hammer on)
In my life You`ve heard me say
     G(6,432)  F#(6 and 3 string 2nd fret)
I love you
Em    C    Dsus
How do I show you it`s true
Em    C            D Dsus   Em     D C(432)
Hear my heart, it longs for more of you
               D(4321)
I`ve fallen deeply in love with you

(chorus)
Em   C       D         G F#
You have stolen my heart
Em   C            D G F#
I`m captivated by you
Em  C               D  Em D C
Never will you and I part
             D
I`ve fallen deeply in love with you

(Intro)

You and I, together forever
Nothing can, stand in the way
My love for you, grows stronger
each new day
I`ve fallen deeply in love with you

(Chorus)strumming
    C                             G
Deeply in love, deeply in love with you
    C                             G      D
Deeply in love, deeply in love with you

Jesus, You've have stolen my heart
I`m captivated by you
Never will you and I part
I`ve fallen deeply in love with you





Comments


Popular Hillsongs tabs & chords
In Freedom Bass Tabs
Deep Of Your Grace Chords
Jesus Blood Chords
Kingdom Come Chords
Oceans Where Feet May Fail Chords
One Way 3 Chords
Solo Cristo Chords
Still 3 Chords
One Way 3 Tabs
Greater Than All Ukulele


Song lyrics



↑ Back to top | Tablatures and chords are parodies/interpretations of the original songs. You may use it for private study, scholarship, research or language learning purposes only
© 2014 AZChords.com Contact us | Privacy policy | DMCA | Add/correct tabs | Request tabs | Top 50 tabs