» » »

Hillsongs, All For Love Tabs (ver.2)

Artists:  A B C D E F G H I J K L M N O P Q R S T U V W X Y Z # 

All For Love Tabs (ver.2)

Hillsongs Tabs
Rating:
0/5 (0 votes)
All For Love lessons Tabs too difficult? Try these video lessons and learn fast
                
verse

|--------------------------------------------|
|---3-----3---5------5---3-----3---3-----3---|
|-------2---------2----------2-------2-------|
|-----0---------2----------0-----------2-----|
|--------------------------------------------|
|--------------------------------------------|

prechorus

|-------------------------------------------------------------------|
|---------------------8-7-------------------------------------------|
|-----6-7-----7---------------7-9-----6-7-----7-----7/9\7---7/9\7---|
|---7-------7---7---7-------7-------7-------7---7-------------------|
|-------------------------------------------------------------------|
|-------------------------------------------------------------------|

-------------------]
---8-8-7-8-7-------]
-------------9-7---]
-------------------]
-------------------]
-------------------]

chorus

[--------9--------12--------9--------10--------12--------12--------9---|
[-----10-------10--------10-------10--------10--------10--------10-----|
[---9--------9---------9--------9---------9---------9---------9--------|
[----------------------------------------------------------------------|
[----------------------------------------------------------------------|
[----------------------------------------------------------------------|

--------10----10----10------(etc)---]
-----10----10----10----10-----------]
---7--------------------------------]
------------------------------------]
------------------------------------]
------------------------------------]

(other than the first chorus, you stum the notes instead of picking)

instrumental

[----------------------------------------------------------------------|
[---/14-14-14-14-14-------------------------------------/14-14-14-14---|
[-------------------/13-13-13h14-14-14-14-14-14-14-14------------------|
[----------------------------------------------------------------------|
[----------------------------------------------------------------------|
[----------------------------------------------------------------------|

----------------------------------------------------------|
------------------------------------------/14-14-14-14-14-|
---/13-13-13h14-14-14-14-14h18-18-18----------------------|
----------------------------------------------------------|
----------------------------------------------------------|
----------------------------------------------------------|

---------------------------------------------]
---------------------------------------/14---]
---/13-13-13h14-14-14-14-14-13-13-13---------]
---------------------------------------------]
---------------------------------------------]
---------------------------------------------]

bridge

[--------------------------------------]
[--------------------------------------]
[---11-13-14------11-14-13------(x2)---]
[------------14------------14----------]
[--------------------------------------]
[--------------------------------------]

acoustic guitar chords

G    = 320033
A/C# = x4222x
D    = xx0232
Bm   = 224432
E/G# = 422100
F#m  = 044200

intro:

G A/C# D G A/C# D

verse 1:

G A/C# D
G A/C# Bm
G A/C# Bm
G A/C# D

prechorus:

A/C# Bm
G D
A/C# Bm
G

chorus:

A E/G# F#m
D
A E/G# F#m
D

verse 2:

G A/C# D
G A/C# D
G A/C# Bm
G A/C# D

instrumental:

F#m D F#m D

verse 3:

D E/G# A
D E/G# A
D E/G# A
D E/G# F#m
F#m
            

comments powered by Disqus
↑ Back to top | Hillsongs Tabs for All For Love. Lyrics for acoustic guitar and electric guitar. Tablatures and chords are parodies/interpretations of the original songs. You may use it for private study, scholarship, research or language learning purposes only