» » »

Hillsongs, All For Love Tabs (ver.1)

Artists:  A B C D E F G H I J K L M N O P Q R S T U V W X Y Z # 

All For Love Tabs (ver.1)

Hillsongs Tabs
 Rating:
4/5 (4 votes)
All For Love lessons Tabs too difficult? Try these video lessons and learn fast
1
                (Intro)
All for love


e|-------------------------------------------|
B|-------------7-9------------7------------5-|
G|--------------------------------------6----|
D|------6---9----------6---9---------6-------|
A|--7-9---7--------7-9---7--------4----------|
E|-------------------------------------------|

e|-------------------------------------------|
B|-------------7-10-9-------------5----------|
G|------------------------------6------------|
D|------6---9-----------------6--------------|
A|--7-9---7-------------4-6-4----------------|
E|-------------------------------------------|

e|------------------------------------------------|
B|-------------7-10-9----------------7-------5--5-|
G|-----------------------------------------6------|
D|------6---9----------------6----9------6--------|
A|--7-9---7-------------7-9----7-------4------4---|
E|------------------------------------------------|

e|----------------------------------------|
B|-------------7-10-9-----2-4--------5----|
G|---------------------------------6------|
D|------6---9--------------------6--------|
A|--7-9---7---------------0-2--4----------|
E|----------------------------------------|
            
Submit corrections

comments powered by Disqus
↑ Back to top | Hillsongs Tabs for All For Love. Lyrics for acoustic guitar and electric guitar. 1 Tablatures and chords are parodies/interpretations of the original songs. You may use it for private study, scholarship, research or language learning purposes only