» » »

Hillsongs, All Day Tabs (ver.4)

Artists:  A B C D E F G H I J K L M N O P Q R S T U V W X Y Z # 

All Day Tabs (ver.4)

Hillsongs Tabs
Rating:
3/5 (1 vote)
All Day lessons Tabs too difficult? Try these video lessons and learn fast
                ALl dAY
bEnEdICtUs bAnd
***************

rhythm  ]>raYmond
lead    ]>gerald
bass    ]>jannO
vocals  ]>jeffrey
vocals  ]>jerson
drumds  ]>clyde


all day
intro tabs:
E:---------------------------------------------|
B:---------------------------------------------|repeat few times
G:-----------1---------------------------------|
D:-------2-2---2-----1-2-----------------------|
A:---2-2---------2-2-----------2-1-------------|
E:-4----------------------2-2------------------|
chords  G#-E-B-F#
verse 1:
E:---------------------------------------------|
B:---------------------------------------------|
G:-----------1---------------------------------|
D:-------2-2---2-----1-2-----------------------|
A:---2-2---------2-2-----------2-1-------------|
E:-4----------------------2-2------------------|

G#m     E              B           F#
I don't care what they say about me
      G#m    E B    F#  G#m
It's alright,   alright
        E         B             F#
I don't care they think about me
      G#m    E        B          F#  G#m
It's alright, they'll get it one day
*******
*******************************]
pasok ng ng rhythm''''at drums

PreChorus:
  E        B     F#        G#m
I love you, I'll follow you
    E      B   F#
You are my, my life
G#m     E      B          F#
I will read my bible and pray
G#m    E         B       F# G#m E  B  F# G#m E B F#
I will follow you all day

_____________________________________________
INTRUMENTAL D2 PA lANG ANG PASOK nG LEAD*****
E:---------------------------------------------------11r1211-----|
B:-----12-12--11-11-12-12------4X thenm-12-12-11-11--------------|
G:------------------------9-8------------------------------------|
D:---------------------------------------------------------------|
A:---------------------------------------------------------------|
E:---------------------------------------------------------------|

Verse 2:
I don't care what it costs anymore
Cos' you gave it all and I'm following you
I don't care what it takes anymore
No matter what happens I'm going your way


Chorus:
B    E  B
All Day
    F#     B
All Day now
     E  G#m E
All Day (repeat)

INSTRUMENTAL pART
******
____________________________________________________
balik sa verse 1 then pre chorus pasok agad ng chorus


Bridge:
      E
Anyone around can see
C#m       E                    C#m
just how good you've been to me
                  E                   C#m
For all my friends that don't know you
             E                 B   E  B  F#  B  E G#m E
I pray that you would save them too

______________________________________________
paki rate nio po itong tabs ko ito pls....>!!!
and sama po kau sa darating na ciy sa tagaytay

_______________________________________________
raymond from lccyf:::::::S:S:S:S::S:S:S:S:S:S:S
            

comments powered by Disqus
↑ Back to top | Hillsongs Tabs for All Day. Lyrics for acoustic guitar and electric guitar. Tablatures and chords are parodies/interpretations of the original songs. You may use it for private study, scholarship, research or language learning purposes only