» » »

Hillsongs, All Day Bass tabs (ver.3)

Artists:  A B C D E F G H I J K L M N O P Q R S T U V W X Y Z # 

All Day Bass tabs (ver.3)

Hillsongs Tabs
Rating:
0/5 (0 votes)
All Day lessons Tabs too difficult? Try these video lessons and learn fast
                -------------------------------------------------------------------------------
			     All Day - Hillsong
-------------------------------------------------------------------------------


If i stuffed anything let me know!

And be sure to rate my first tab!

Tuning: Standard

Intro/ Main Riff

G|--------------------------------------|
D|-------------6------------------------|
A|---------7-7----7-----6-5-----2-1-----|
E|-44-6-7-----------7-7-----2-2---------|

Chorus

G|--------------------------------------|
D|--------------------------------------|
A|-222-----222------222-----222---------|
E|-----000------222-----000-----444--000|

Bridge

The 4 and the 7 are both 8 counts.

G|-------------|-------------|
D|-------------|-------------|
A|-4--------7--|--2~~~-------|
E|-------------|-------------|

The 2nd B is optional aswell as letting it ring whatever floats your boat.

G|---------------------------|
D|---------------------------|
A|--22(2)(~~~~~)-------------|
E|---------------------------|


| /  slide up
| \  slide down
| h  hammer-on
| p  pull-off
| ~  vibrato
| +  harmonic
| x  Mute note
===============================================================================
            

comments powered by Disqus
↑ Back to top | Hillsongs Bass for All Day. Lyrics for acoustic guitar and electric guitar. Tablatures and chords are parodies/interpretations of the original songs. You may use it for private study, scholarship, research or language learning purposes only