» » »

Hillsongs, All Day Tabs (ver.1)

Artists:  A B C D E F G H I J K L M N O P Q R S T U V W X Y Z # 

All Day Tabs (ver.1)

Hillsongs Tabs
 Rating:
3.5/5 (8 votes)
All Day lessons Tabs too difficult? Try these video lessons and learn fast
1
                All Day – Hillsong United

Three Guitars in the song(or so I think):
Acoustic : Plays Throughout Song
Electric 1: Comes in At Pre-Chorus
Electric 2: Comes In At Pre-Chorus (With Distortion)

Intro: (Bass Guitar)

G---------------1--------------------------------|
D-----------2-2---2-----1-2----------------------| Goes on till chorus
A-------1-2---------2-2---------2-1--------------|
E---4-4---------------------2-2------------------|


Acoustic Chords For Verse and Pre Chorus:

G#m E B F#  (Same chords over n over till chorus)

(u cant really hear the guitar but its there.. so create ur own strumming)


Pre-Chorus: (cuz I love u n I’ll follow u…)

Electric 1:
e|-------------------------------------------|
B|--4---4---5---5---4---4---2---2------------|
G|----4---4---4---4---4---4---4---4----------|
D|-------------------------------------------|
A|-------------------------------------------|
E|-------------------------------------------|        

Electric 2:

G#m E B F# (Palm muted)

Riff part:

Electric 1:
e|--------------------------|          e|-------------11h12p11-9-----|
B|--12-12-11-11-12-12-------|          B|-12-12-11-11------------12*-|
G|--------------------9/8---| x3 then  G|----------------------------| 
D|--------------------------|          D|----------------------------|
A|--------------------------|          A|----------------------------|
E|--------------------------|          E|----------------------------|

                                 (* = hold this note til next pre chorus)

Electric 2:

G#m E B F# (Palm muted continues throughout the riff)

Verse 2:

Electric 1:
Continues holding note from the riff

Electric 2:

Same chords but played with heavy distortion
Strumming : Twice palm mute then release palm mute and play once

    G#m     E      B       F# 
e |------------------------------|
B |------------------------------|
G |--------1-1-1--4-4-4----------|  continues til chorus
D |-6-6-6--2-2-2--4-4-4--4-4-4---|
A |-6-6-6--2-2-2--2-2-2--4-4-4---|
E |-4-4-4----------------2-2-2---|
    . .    . .    . .    . .

. = Palm Mute

Pre Chorus 2:

Electric 1:

G#m E B F# (Palm Muted)

Electric 2:

Continues Playing The Same thing From Verse

Chorus:

All Guitars:

B E B F# B E G#m E

Strumming for this can be 4 times per chord

Riff 2:
       
Electric 1:
e|--------------------------|          e|-------------11h12p11-9**---|
B|--12-12-11-11-12-12-------|          B|-12-12-11-11----------------|
G|--------------------9/8---| x3 then  G|----------------------------| 
D|--------------------------|          D|----------------------------|
A|--------------------------|          A|----------------------------|
E|--------------------------|          E|----------------------------|

(** = go into pre chorus straight after playing this note)

Electric 2:

Plays the same chords the same way as in verse 2

Verse 3 & Pre Chorus 3:

Electric 1:

G#m E B F#

Electric 2:

Continues Playing the Same thing From Riff 2

Chorus:

Same as previous chorus

Bridge:

All Guitars:

C#m E (x4)

Electric Guitars end on B chord at 2:46

Acoustic Guitar plays chords as in the chorus at 2:46

Electric 1:

       (2:53)        (3:00)
e |------------------------------|
B |------------------------------|
G |-----4-4-----------4-4-4------|  
D |-----4-4-----------4-4-4------|
A |-----2-2-----------2-2-2------|
E |------------------------------|


(3:08)
B E B F# B E G#m Em (Palm Muted)

Chorus: (3:23)

Same as previous chorus til the end


That’s all.. Have fun playing… and sorry if I got anything wrong..

Rock On For God!!
            
Submit corrections

comments powered by Disqus
↑ Back to top | Hillsongs Tabs for All Day. Lyrics for acoustic guitar and electric guitar. 1 Tablatures and chords are parodies/interpretations of the original songs. You may use it for private study, scholarship, research or language learning purposes only