>
 >
Adonai 1

Adonai 1 Guitar Tabs

Hillsongs - Adonai 1 chords, tabs, tablatures, lyrics

Guitar lessons | Add/correct | Request | Top 50 tabs Artists:  A B C D E F G H I J K L M N O P Q R S T U V W X Y Z 0-9

Adonai 1 Guitar Tabs – Hillsongs

CD, Sheet music, Poster

Do you like Adonai 1? Share with your friends now
ChordsChords v2Chords v3Chords v4Chords v5Chords v6TabsTabs v2Tabs v3Ukulele
TUNING: Standard (eBGDAE)

Jeremy


~INTRO~
e|---------------------------------------------------------------------------|
B|---------------------------------------------------------------------------|
G|-16-16-16-16-16-16-16-16s20-20-20-20-20-20-20-20-20s13-13-13-13-13-13-13---|
D|---------------------------------------------------------------------------|
A|---------------------------------------------------------------------------|
E|---------------------------------------------------------------------------|

e|--------------------------------14-14-14-14-12-12-11-------12-12-11-11-----|
B|-----------------------------------------------------12--12----------------|
G|-13-13s16-16-16-16-16-16-16------------------------------------------------|
D|---------------------------------------------------------------------------|
A|---------------------------------------------------------------------------|
E|---------------------------------------------------------------------------|

e|---------------------------------------------------------------------------|
B|-12------------------------------------------------------------------------|
G|----13-13-13-13-13-13-13-13s15-15-15-15-15-15-15s16~~~---------------------|
D|---------------------------------------------------------------------------|
A|---------------------------------------------------------------------------|
E|---------------------------------------------------------------------------|
~Verse 1~
e|---------------------------------------------------------------------------|
B|---------------------------------------------------------------------------|
G|-------------------------------------(X2)----------------------------------|
D|-6~----------4~-------------2~---------------------------------------------|
A|-6~----------4~-------------2~---------------------------------------------|
E|-4~----------2~-------------0~---------------------------------------------|
  "I love you more than I can say..."
(Chorus X1 without playing)

~Instrumental~                                    Instrumental ending #1
e|--14-14-14-14-12-12-11--------12-12-11-11-----|----------------------------|
B|-----------------------14--14-------------12--|----------------------------|
G|----------------------------------------------|-13-13-13-13-13s15-15-15-15-|
D|----------------------------------------------|----------------------------|
A|----------------------------------------------|----------------------------|
E|----------------------------------------------|----------------------------|
                     Instrumental ending #2
e|----------------|----------------------------------------------------------|
B|----------------|----------------------------------------------------------|
G|-15-15s16-16----|--13-13-13-13-13-13s15-15s16-16s18-18-18s20~~~------------|
D|----------------|----------------------------------------------------------|
A|----------------|----------------------------------------------------------|
E|----------------|----------------------------------------------------------|

(Verse 2,same as Verse 1 except 3 strums + a few Up&Down strokes into Chorus)
e|---------------------------------------------------------------------------|
B|---------------------------------------------------------------------------|
G|---------------------------------------------------------------------------|
D|---------------------------------------------------------------------------|
A|---------------------------------------------------------------------------|
E|---------------------------------------------------------------------------|

~2nd Chorus~
e|---------------------------------------------------------------------------|
B|---------8-(X8)--9-(X8)--11-(X8)---------------6-(X8)--9-(X8)--11-(X8)-----|
G|-9-(X8)--8-------9-------11-----------9--(X8)--6-------9-------11----------|
D|-9-------6-------7-------9------------9--------4-------7-------9-----------|
A|-7------------------------------------7------------------------------------|

e|---------------------------------------------------------------------------|
B|---------------------------------------------------------------------------|
G|--------------------------4-(X3)----------------------------(X2)-----------|
D|----6-(X8)-------4-(X3)---4--------2-(X-Any)---4-(X-Any)-------------------|
A|----6------------4--------2--------2-----------4---------------------------|
E|----4------------2-----------------0-----------2---------------------------| 
"...world, will fade      aw   -   ay."

(Instrumental, use rhythm or chords)
(Bridge)
(Chorus X2)

~Outro~ (Instrumental #1 X3 then this)
e|---------------------------------------------------------------------------|
B|---------------------------------------------------------------------------|
G|--16------20------13---9~~~------------------------------------------------|
D|--X-------X-------X----9~~~------------------------------------------------|
A|--14------18------11---7~~~------------------------------------------------|
E|---------------------------------------------------------------------------|





Comments


Popular Hillsongs tabs & chords
All Day 2 Bass Tabs
All My Hope Chords
Believe 1 Chords
Consume Chords
Praise Him Chords
Reason I Live Chords
Soon Chords
To You Chords
God Is Able 2 Tabs
God Is Great Ukulele


Song lyrics



↑ Back to top | Tablatures and chords are parodies/interpretations of the original songs. You may use it for private study, scholarship, research or language learning purposes only
© 2014 AZChords.com Contact us | Privacy policy | DMCA | Add/correct tabs | Request tabs | Top 50 tabs