» » »

Adonai Tabs (ver.1)

Artists:  A B C D E F G H I J K L M N O P Q R S T U V W X Y Z # 

Adonai Tabs (ver.1)

Hillsongs
Rating:
4/5 (2 votes)

Tabs too difficult? Try these video lessons and learn fast.
                (Intro)
In this song Adonai, I just make the intro simplier than the album.So it goes like this:

------------------------------------|
------------------------------------|
---------8-------13--------16-------|
-6---------(x7)-----(x8)------(x7)--|
-6-(x8)--6-------11--------14-------|
-4----------------------------------|

-------------------------------------------------|
-------17-17-16-16-----------17-17-16-16---------|
-16-16-------------16-16--16-------------16s13---|
-------------------------------------------------|
-------------------------------------------------|
-------------------------------------------------|

--------------------------------------------------|
-----------------------------------------14-14----|
-13-13-13-13-13-13-13--15-15-15-16-16-16-------16-|
--------------------------------------------------|
--------------------------------------------------|
--------------------------------------------------|

On the instrumental,I just put additional strings to make it aloud or
just sounds a lot, you know so:

-14-14-14-14-14-14-14-14--14---------------------|
----------------------------11-11-11-11h12-12-12-|
-------------------------------------------------|
-------------------------------------------------|
-------------------------------------------------|
-------------------------------------------------|

-------------------------------------------------|
-------12-------12--------12------12--14----12---|
-11h13----11h13----11h13----11h13----------------|
-------------------------------------------------|
-------------------------------------------------|
-------------------------------------------------|

-11-------11-------11--------12-11----11-------11-|
----14-12----14-12----14--12-------12----14-12----|
--------------------------------------------------|
--------------------------------------------------|
--------------------------------------------------|
--------------------------------------------------|

-------11-------12-11-----11------12--14--------|
-14-12----14-12-------12----12-12---------12----|
------------------------------------------------|
------------------------------------------------|
------------------------------------------------|
------------------------------------------------|

So, that's for the song...
Thnx and God Bless!!!
Please put your comments!!
            
Tabs too difficult? Try these video lessons and learn fast.




comments powered by Disqus
↑ Back to top | Tablatures and chords are parodies/interpretations of the original songs. You may use it for private study, scholarship, research or language learning purposes only