» » »

Henry Mancini, Pink Panther Bass tabs (ver.1)

Artists:  A B C D E F G H I J K L M N O P Q R S T U V W X Y Z # 

Pink Panther Bass tabs (ver.1)

Henry Mancini Tabs
 Rating:
3.4/5 (5 votes)
Pink Panther lessons Tabs too difficult? Try these video lessons and learn fast
1
                G----------------------------------------------------------------------------|
D----------------------------------------------------------------------------|
A-----------------------3-2-----2-1-------0----------------------------------|
D---1-2---4-5---1-2-4-5-----2-5-------------5-2-0-2--------------------------|


G----------------------------------------------------------------------------|
D-------------------------------2-1~~~~~~~~~~--------------------------------|
A-----------------------3-2--------------------------------------------------|
D---1-2---4-5---1-2-4-5-----2-5----------------------------------------------|


G----------------------------------------------------------------------------|
D----------------------------------------------------------------------------|
A-----------------------3-2-----2-1-------0----------------------------------|
D---1-2---4-5---1-2-4-5-----2-5-------------5-2-0-2--------------------------|

G----------------------------------------------------------------------------|
D---2-0----------------------------------------------------------------------|
A-------2-0------------------------------------------------------------------|
D-----------5-2--/7-/7-/7-/7-5\2-0-2-2---------------------------------------|
            
Submit corrections

comments powered by Disqus
↑ Back to top | Henry Mancini Bass for Pink Panther. Lyrics for acoustic guitar and electric guitar. 1 Tablatures and chords are parodies/interpretations of the original songs. You may use it for private study, scholarship, research or language learning purposes only