» » »

Henry Mancini, Pink Panther Tabs (ver.2)

Artists:  A B C D E F G H I J K L M N O P Q R S T U V W X Y Z # 

Pink Panther Tabs (ver.2)

Henry Mancini Tabs
Rating:
4/5 (8 votes)
Pink Panther lessons Tabs too difficult? Try these video lessons and learn fast
                ----------------------------------------------------------------------------
----------------------------------------------------------------------------




e|---------0---2h3------0-------8p7-----7--6---------5p3-----------------|
B|------------------0-4----7/8--------8-------5----------5--3--5---5-----|
G|----------------------------------9---------3--------------------3-----|
D|--6/7-8------------------4/5-------------------5---------------5-------|
A|--4/5-6------2---------------------------3-------------------3---------|
E|---------0------------0--------------------------3------------------3--|


e|--------0--2h3------0-------8p7-----12-11--------------------------------|
B|----------------0-4----7/8--------8-------10-10----10-----10--------10---|
G|--------------------------------9----------8--8-----8------8--------8----|
D|-6/7-8-----------------4/5-----------------------------10-------10-------|
A|-4/5-6-----2---------------------------8---------------------8-----------|
E|--------0-----------0---------------------------8----------------------8-|


e|---------0---2h3------0-------8p7-----7--6---------5p3-----------------|
B|------------------0-4----7/8--------8-------5----------5--3--5---5-----|
G|----------------------------------9---------3--------------------3-----|
D|--6/7-8------------------4/5-------------------5---------------5-------|
A|--4/5-6------2---------------------------3-------------------3---------|
E|---------0------------0--------------------------3------------------3--|


e|--0-------11h12--10----------------------------------------------|
B|---0-----------------12--10---------11p10--11p10--11p10--11p10---|
G|----0------------------------12--9-------------------------------|
D|-----2-----------------------------------------------------------|
A|------2----------------------------------------------------------|
E|-------0---------------------------------------------------------|


             (Repeat 6x)
e|--3p0---0-0-x--------3p0---0-0-x--------|
B|------3-----x------------3-----x--------|
G|------------x------------------x--------|
D|------------x-1-0--------------x---0-1--|
A|------------------4--3-----------4------|
E|--0-------------------------------------|



e|------------------------------------------------------------------|
B|----------------------------------------------------------------0-|
G|------------------------------------------------------------------|
D|------------------------------------------------------------------|
A|------2-2-7-7-6-6-5-5-4-4-3-3-2-2-----2-2-7-7-6-6-5-5-4-4-3-3-2---|
E|--0-0-----------------------------0-0-----------------------------|


e|-0-------7-------6-------5-3-0---0-----0-----0---------------------------|
B|-------------------------------3----0-----3-----3--0-----0--------------0|
G|------------------------------------------------------2------------------|
D|---------------------------------------------2-----1-----0--0------------|
A|---------7-7-6-6-5-5-4-4-3-------------2----------------------4-4-3-3-2--|
E|-0-0-7-7-------------------------0---------------------------------------|


e|-0-------7-------6-------5-3-0----0----0----0--0--0-----------------|
B|-------------------------------3---------------------0-0-0-0-0-0-0--|
G|-----------------------------------------------------2-2-2-2-2-2----|
D|-----------------------------------------------------1-1-1-1-1-1----|
A|---------7-7-6-6-5-5-4-4-3---------------------------2-2-2-2-2-2----|
E|-0-0-7-7--------------------------0----0----3--2--0-----------------|


e|-0-------7-------6-------5-3-0---0-----0-----0---------------------------|
B|-------------------------------3----0-----3-----3--0-----0--------------0|
G|------------------------------------------------------2------------------|
D|---------------------------------------------2-----1-----0--0------------|
A|---------7-7-6-6-5-5-4-4-3-------------2----------------------4-4-3-3-2--|
E|-0-0-7-7-------------------------0---------------------------------------|


e|-0-------7-------6-------5-3-0----0----0----0--0--0----0-------------|
B|-------------------------------3-----------------------4-------------|
G|-------------------------------------------------------0-------------|
D|-------------------------------------------------------4-------------|
A|---------7-7-6-6-5-5-4-4-3-----------------------------2-------------|
E|-0-0-7-7--------------------------0----2----3--2--0----0-------------|
            
Submit corrections

comments powered by Disqus
↑ Back to top | Henry Mancini Tabs for Pink Panther. Lyrics for acoustic guitar and electric guitar. Tablatures and chords are parodies/interpretations of the original songs. You may use it for private study, scholarship, research or language learning purposes only