» » »

Henry Mancini, Pink Panther Tabs (ver.3)

Artists:  A B C D E F G H I J K L M N O P Q R S T U V W X Y Z # 

Pink Panther Tabs (ver.3)

Henry Mancini Tabs
 Rating:
3.4/5 (5 votes)
Pink Panther lessons Tabs too difficult? Try these video lessons and learn fast
1
                e|------------------|---------|--------|
B|------------------|---------|--------|
G|------------------|---------|--------|
D|------------------|---------|--------|
A|-6-7-8-9--6-7-8-9-|-8-7-6-5-|6-7-8-9-|
E|-4-5-6-7--4-5-6-7-|-6-5-4-3-|4-5-6-7-|

e|------------|------------|-----------------|                      
B|------------|------------|-----------------|
G|------------|------------|-12-11--------11-|
D|-8-9--11-12-|-8-9--11-12-|-------9-12------|
A|------------|------------|-----------------|
E|------------|------------|-----------------|

e|----------------------|------------|------------|                      
B|----------------------|------------|------------|
G|-10----9--7-----------|------------|------------|
D|-------------9--7--9--|-8-9--11-12-|-8-9--11-12-|
A|----------------------|------------|------------|
E|----------------------|------------|------------|

e|------------------------|------------|------------|
B|------------------------|------------|------------|
G|-12-11------11---16-15--|------------|------------|
D|---------12-------------|-8-9--11-12-|-8-9--11-12-|
A|------------------------|------------|------------|
E|------------------------|------------|------------|

e|-------------------|-----------------|-------------------|
B|-------------------|-----------------|-12--10------------|
G|-12-11----------11-|-10---9--7-------|--------11--9------|
D|---------9-12------|-----------9-7-9-|--------------12-9-|
A|-------------------|-----------------|-------------------|
E|-------------------|-----------------|-------------------|

e|---------------------|-----------------|----------------|          
B|---------------------|-----------------|----------------|
G|-10p9-10p9-10p9-10p9-|-----------------|----------------|
D|---------------------|-12--9------9--9-|-12--9-----9--9-|
A|---------------------|--------12-------|-------12-------|
E|---------------------|-----------------|----------------|

e|------------------|------------------|                      
B|------------------|-------14-15------|
G|------------------|-16-17-------16-17|
D|-12--9------9--9--|------------------|
A|--------12--------|------------------|
E|------------------|------------------|

e|---------------|----------------|----------------------|           
B|-14-15--20-19--|---------19-18--|--17--15--------------|
G|---------------|-16-19----------|----------16--14--16--|
D|---------------|----------------|----------------------|
A|---------------|----------------|----------------------|
E|---------------|----------------|----------------------|

e|-----------------|----------------------------19-18-|                    
B|--------14-15----|---------14-15--20-19----19-------|
G|-16-17-----------|---16-17--------------19----------|
D|-----------------|----------------------------------|
A|-----------------|----------------------------------|
E|-----------------|----------------------------------|
                                                                            
e|--------------------------|--------------------|----------------|
B|-------14--15-------14-15-|-20-19--------19-18-|-17-15----------|
G|-15-16--------15-16-------|--------16-19-------|-------16-14-16-|
D|--------------------------|--------------------|----------------|
A|--------------------------|--------------------|----------------|
E|--------------------------|--------------------|----------------|
                                               3 TIMES
e|--------------------|---------------------[---------------]        
B|-12--10-------------|---------------------[---------------]
G|--------11--9-------|-10p9-10p9-10p9-10p9-[---------------]
D|--------------12--9-|---------------------[-12--9----9--9-]
A|--------------------|---------------------[-------12------]
E|--------------------|---------------------[---------------]
            
Submit corrections

comments powered by Disqus
↑ Back to top | Henry Mancini Tabs for Pink Panther. Lyrics for acoustic guitar and electric guitar. 1 Tablatures and chords are parodies/interpretations of the original songs. You may use it for private study, scholarship, research or language learning purposes only