» » »

Henry Mancini, Baby Elephant Walk Tabs (ver.2)

Artists:  A B C D E F G H I J K L M N O P Q R S T U V W X Y Z # 

Baby Elephant Walk Tabs (ver.2)

Henry Mancini Tabs
 Rating:
4.4/5 (7 votes)
Baby Elephant Walk lessons Tabs too difficult? Try these video lessons and learn fast
1
                |-------------------|-------------------|-------------------|-------------------|
|-------------------|-------------------|-------------------|-------------------|
|-------------------|-------------------|-------------------|-------------------|
|-------------------|-------------------|-------------------|-------------------|
|---3---3-------0---|---3---3-------0---|---3---3-------0---|---3---3-------0---|
|---1---1---4-------|---1---1---4-------|---1---1---4-------|---1---1---4-------|


|---------------1---|---5---3---1-------|-------------------|-------------------|
|-----------1-------|---------------3---|---0---1-----------|-------------------|
|---------2---------|-------------------|-------------------|-------------------|
|---3---------------|-------------------|-------------------|-------------------|
|---3---3-------0---|---3---3-------0---|---3---3-------0---|---3---3-------0---|
|---1---1---4-------|---1---1---4-------|---1---1---4-------|---1---1---4-------|


|---------------1---|---5---3---1-------|-------------------|-------------------|
|-----------1-------|---------------3---|---1---------------|-----------3-------|
|---------2---------|-------------------|-------------------|-------------------|
|---3---------------|-------------------|-------------------|-------------------|
|---3---3-------0---|---3---3-------0---|---3---3-------0---|---3---3-------0---|
|---1---1---4-------|---1---1---4-------|---1---1---4-------|---1---1---4-------|


|-------------------|-------------------|-------------------|-------------------|
|-------------------|-----------3-------|-------------------|-------------------|
|---1---------------|-------------------|---1---------------|-------------------|
|-------------------|-------------------|-------3-----------|-------------------|
|---3---3-------0---|---3---3-------0---|---3---3-------0---|---3---3-------0---|
|---1---1---4-------|---1---1---4-------|---1---1---4-------|---1---1---4-------|


|---------------1---|---5---3---1-------|-------------------|-------------------|
|-----------1-------|---------------3---|---0---1-----------|---------------1---|
|---------2---------|-------------------|-------------------|-------------------|
|---3---------------|-------------------|-------------------|-----------1---2---|
|---3---3-------0---|---3---3-------0---|---3---3-------0---|---3---3-----------|
|---1---1---4-------|---1---1---4-------|---1---1---4-------|---1---1-----------|


|---3-------3-------|---0---------------|---1-------1-------|-----1-------------|
|-------------------|-------1-------1---|-------------------|---4---4-1---------|
|---0---0-----------|---0---0-----------|-------------------|-------------4--1--|
|-----------1---2---|-----------1---2---|---3---3-------0---|---3---------------|
|---3---3-----------|---3---3-----------|---1---1---4-------|---1---------------|
|-------------------|-------------------|-------------------|-------------------|


|-------------------|-------------------|-------------------|-------------------|
|---0-------0-------|-------------------|-------------------|-------------------|
|-------------------|---3-4-3-1---------|-------------------|-------------------|
|-------------------|------------3------|---1---3-----------|-------------------|
|---3---3-------0---|---3-----------3---|---3---3-------0---|---3---3-------0---|
|---1---1---4-------|---1---------------|---1---1---4-------|---1---1---4-------|


end on
|-------------------|
|-------------------|
|-------------------|
|---3---5---3---3---|
|---------------5---|
|---1---3---1---1---|
            
Submit corrections

comments powered by Disqus
↑ Back to top | Henry Mancini Tabs for Baby Elephant Walk. Lyrics for acoustic guitar and electric guitar. 1 Tablatures and chords are parodies/interpretations of the original songs. You may use it for private study, scholarship, research or language learning purposes only